» » »

J.B.O., Wessi Girl Tabs (ver.1)

Artists:  A B C D E F G H I J K L M N O P Q R S T U V W X Y Z # 

Wessi Girl Tabs (ver.1)

J.B.O. Tabs
Rating:
0/5 (0 votes)
Wessi Girl lessons Tabs too difficult? Try these video lessons and learn fast
                

E|---------------------------------------|
B|---------------------------------------|  P.M.
G|---------------------------------------|
D|---------------------------------------|
A|-5--5-----------------------------5--5-|
E|-------5--5--7--7-----3--3--5--5-------|


E|---------------------------------------|
B|---------------------------------------|
G|---------------------------------------|
D|-7--7-----------------------------7--7-|
A|-5--5--7--7--9--9-----5--5--7--7--5--5-|
E|-------5--5--7--7-----3--3--5--5-------|


E|---------------------------------------------------------------------|
B|---------------------------------------------------------------------|
G|---------------------------------------------------------------------|
D|-------------------7-7--7--7--2-6-6--6-6-6---7-7--7--7--2-6-6--6-6-6-|
A|-------------------5-5--5--5--0-4-4--4-4-4---5-5--5--5--0-4-4--4-4-4-|
E|-5-5-5-5-5-5-5-5-----------------------------------------------------|

E|-----------------------------|
B|-----------------------------|
G|-----------------------------|
D|-----------7-7--------7-2--2-|
A|-5-5-5-7-7-5-5--5--5--5-0--0-|
E|-3-3-3-5-5------3--3--3------|

Channel :) und abonnieren wäre nett
            
Submit corrections

comments powered by Disqus
↑ Back to top | J.B.O. Tabs for Wessi Girl. Lyrics for acoustic guitar and electric guitar. Tablatures and chords are parodies/interpretations of the original songs. You may use it for private study, scholarship, research or language learning purposes only