» » »

J.B.O., Spatz In Der Hand Tabs (ver.1)

Artists:  A B C D E F G H I J K L M N O P Q R S T U V W X Y Z # 

Spatz In Der Hand Tabs (ver.1)

J.B.O. Tabs
Rating:
0/5 (0 votes)
Hard to play? Try these video lessons and learn fast.
                Spatz in der Hand

Stimmung: (Eb,Ab,Db,GB,BB,Eb)

Intro:

Eb|--4-4-4-4-4-4-4-4-4-4--4-4-4-4-4-4-4-4-4-4--4-4-4-4-4-4-4-4-4-4--|
Bb|--4-4-4-4-4-4-4-4-4-4--4-4-4-4-4-4-4-4-4-4--4-4-4-4-4-4-4-4-4-4--|
Gb|--4-4-4-4-4-4-4-4-4-4--4-4-4-4-4-4-4-4-4-4--4-4-4-4-4-4-4-4-4-4--|
Db|--6-6-6-6-6-7-6-6-6-6--6-6-6-6-6-7-6-6-6-6--6-6-6-6-6-7-6-6-6-6--|
Ab|--4-4-4-4-4-4-4-4-4-4--0-0-0-0-0-0-0-0-0-0--x-x-x-x-x-x-x-x-x-x--|
Eb|--------------------------------------------0-0-0-0-0-0-0-0-0-0--|

Eb|--2-2-2-2-2-2-2-2-2-2--|
Bb|--2-2-2-2-2-2-2-2-2-2--|
Gb|--2-2-2-2-2-2-2-2-2-2--|
Db|--4-4-4-4-4-6-4-4-4-4--|
Ab|--2-2-2-2-2-2-2-2-2-2--|
Eb|-----------------------|
 Wird 2 mal gespielt

Introbegleitung:

Eb|----0-----0-|----0-----0-|----0-----0-|----2-----2-|
Bb|--0---0-0---|--0---0-0---|--0---0-0---|--0---0-0---|
Gb|------------|------------|------------|------------|
Db|------------|------------|------------|------------|
Ab|------------|------------|------------|------------|
Eb|------------|------------|------------|------------|
(0:10)Fängt an wenn das Intro zum 2 Mal gespiel wird..

Die Anschlagtechnik der Akkorde bzw Intro:

Eb|4-------4-------4-------4-------4-------4-------4-------4-------4-------4|
Bb|4-------4-------4-------4-------4-------4-------4-------4-------4-------4|
Gb|4-------4-------4-------4-------4-------4-------4-------4-------4-------4|
Db|6-------6-------6-------6-------6-------7-------6-------6-------6-------6|
Ab|4-------4-------4-------4-------4-------4-------4-------4-------4-------4|
Eb|-------------------------------------------------------------------------|
       Abschlag        Abschlag      Aufschlag      Aufschlag      Abschlag     Abschlag      Abschlag       Aufschlag     Aufschlag   Abschlag

Pre-Verse:
     Cis                 A                     E
Eb|-----------------------------------------------------------------|
Bb|-----------------------------------------------------------------|
Gb|--6-6-6-6-6-6-6-6-6-6--------------------------------------------|
Db|--6-6-6-6-6-6-6-6-6-6—-7-7-7-7-7-7-7-7-7-7--2-2-2-2-2-2-2-2-2-2--|
Ab|--4-4-4-4-4-4-4-4-4-4--7-7-7-7-7-7-7-7-7-7--2-2-2-2-2-2-2-2-2-2--|
Eb|-----------------------5-5-5-5-5-5-5-5-5-5--0-0-0-0-0-0-0-0-0-0--|
     H                    H
Eb|--------------------------------------------|
Bb|--------------------------------------------|
Gb|--------------------------------------------|
Db|--9-9-9-9-9-9-9-9-9-9--9-9-9-9-9-9-9-9-9-9--|
Ab|--9-9-9-9-9-9-9-9-9-9--9-9-9-9-9-9-9-9-9-9--|
Eb|--7-7-7-7-7-7-7-7-7-7--7-7-7-7-7-7-7-7-7-7--|
(0:18) Wird 1 mal gespielt... Zum Schluss während der erste Gitarrist das H 2 mal spielt, scratcht der 2 Gitarrist über die Tiefen Seiten.
Verse:
     Cis                 A                     E
Eb|-----------------------------------------------------------------|
Bb|-----------------------------------------------------------------|
Gb|--6-6-6-6-6-6-6-6-6-6--------------------------------------------|
Db|--6-6-6-6-6-6-6-6-6-6—-7-7-7-7-7-7-7-7-7-7--2-2-2-2-2-2-2-2-2-2--|
Ab|--4-4-4-4-4-4-4-4-4-4--7-7-7-7-7-7-7-7-7-7--2-2-2-2-2-2-2-2-2-2--|
Eb|-----------------------5-5-5-5-5-5-5-5-5-5--0-0-0-0-0-0-0-0-0-0--|
     H
Eb|-----------------------|
Bb|-----------------------|
Gb|-----------------------|
Db|--9-9-9-9-9-9-9-9-9-9--|
Ab|--9-9-9-9-9-9-9-9-9-9--|
Eb|--7-7-7-7-7-7-7-7-7-7--|
(0:28) wird 4 mal gespielt

Text:
schwarz und weiss, kalt und heiss
groß und klein, ja und nein
grad und krumm, schlau und dumm
scharf und mild, zahm und wild
gut und schlecht, Link und Recht
gar und roh, Ok und KO
rund und eckig, sauber und dreckig
mollig und hager, Metal und Schlager

Chorus:
     E                     H                   Cis
Eb|-----------------------------------------------------------------|
Bb|-----------------------------------------------------------------|
Gb|-----------------------4-4-4-4-4-4-4-4-4-4--6-6-6-6-6-6-6-6-6-6--|
Db|--2-2-2-2-2-2-2-2-2-2--4—4-4-4-4-4-4-4-4-4--6-6-6-6-6-6-6-6-6-6--|
Ab|--2-2-2-2-2-2-2-2-2-2--2-2-2-2-2-2-2-2-2-2--4—4-4-4-4-4-4-4-4-4--|
Eb|--0-0-0-0-0-0-0-0-0-0--------------------------------------------|
     A
Eb|-----------------------|
Bb|-----------------------|
Gb|-----------------------|
Db|--7-7-7-7-7-7-7-7-7-7--|
Ab|--7-7-7-7-7-7-7-7-7-7--|
Eb|--5-5-5-5-5-5-5-5-5-5--|
(1:00) wird 4 mal gespiel. Wobei beim 4 mal nur bis zum H gespielt wird. 

Text:
Es gibt eine Zeit zu Weinen und eine Zeit zu Lachen, 
eine Zeit zu Schlafen und eine Zeit zu Wachen
eine Zeit für Liebe und eine Zeit für Hass.
doch bringt die Liebe dir viel mehr Spa
aaaaaaaaaaaaaaaaaaaaaaaaaaaaaß

Verse: 
(1:30) wird 4 mal gespielt

Text:
alt und neu , Girl und Boy
kaputt und heil, frigide und geil
reich und blank, Klossik und Punk
soll und haben, Sachsen und Schwaben,
Ein dicker ein Magrer, potent und Viagra
Lärm und Stille, der Papst und die Pille
Genies und deppen, Ollip P. und Rappen
echt geile Weiber und Carolin Bleiber

Chorus:
(2:04) wird 4 mal gespiel. Wobei beim 4 mal nur bis zum H gespielt wird

Text:
Es gibt eine Zeit zu Weinen und eine Zeit zu Lachen, 
eine Zeit zu Schlafen und eine Zeit zu Wachen
eine Zeit für Liebe und eine Zeit für Hass.
doch bringt die Liebe dir viel mehr Spa
aaaaaaaaaaaaaaaaaaaaaaaaaaaaaß


Bridge:
 
Eb|--2--2--6--4--|
Bb|--2--2--7--4--|
Gb|--3--3--8--4--|
Db|--4--3--8--4--|
Ab|--------6--2--|
Eb|--------------|
(2:34) 3 mal gespielt

Text:
jedes ding im leben hat zwei seiten,
ob gut ob schlecht, darüber lässt sich streiten.
das leben is mal gut und mal gemein.
solang es ab und zu auch gut ist
könnt es noch schlimmer sein.


Outro:

     Fis                  Cis                   Dis
Eb|-----------------------------------------------------------------|
Bb|-----------------------------------------------------------------|
Gb|-----------------------6-6-6-6-6-6-6-6-6-6--8-8-8-8-8-8-8-8-8-8--|
Db|--4—4-4-4-4-4-4-4-4-4--6-6—6-6-6-6-6-6-6-6--8-8-8-8-8-8-8-8-8-8--|
Ab|--4-4-4-4-4-4-4-4-4-4--4-4-4-4-4-4-4-4-4-4--6-6-6-6-6-6-6-6-6-6--|
Eb|--2-2-2-2-2-2-2-2-2-2--------------------------------------------|
    H
Eb|-----------------------|
Bb|-----------------------|
Gb|-----------------------|
Db|--9-9-9-9-9-9-9-9-9-9--|
Ab|--9-9-9-9-9-9-9-9-9-9--|
Eb|--7-7-7-7-7-7-7-7-7-7--|
(2:57) 3 mal gespielt... nebenbei wird das Solo gespielt... aber das konnte ich noch nicht raushören :)


PS: Man muss nicht unbedingt alles einen Halbton Tiefer spielen... mit normaler Stimmung hört es sich genauso gut an.
            

comments powered by Disqus
↑ Back to top | J.B.O. Tabs for Spatz In Der Hand. Lyrics for acoustic guitar and electric guitar. Tablatures and chords are parodies/interpretations of the original songs. You may use it for private study, scholarship, research or language learning purposes only