>
 >
The Purveyors Of Cool

The Purveyors Of Cool Bass Tabs

Jazzberry Ram - The Purveyors Of Cool chords, tabs, tablatures, lyrics

Guitar lessons | Add/correct | Request | Top 50 tabs Artists:  A B C D E F G H I J K L M N O P Q R S T U V W X Y Z 0-9

The Purveyors Of Cool Bass Tabs – Jazzberry Ram

CD, Sheet music, Poster

Do you like The Purveyors Of Cool? Share with your friends now
Bass TabsBass Tabs v2
BASS GUITAR TAB
---------------


THIS IS AN EXCELLENT SONG TO PLAY BY A TALENTED LITTLE
CANADIAN BAND FROM THE WEST COAST.  YOU GUYS RULE!!

This song is the first track on the Ram's third CD,
"That Sound We Make".  It's got a real funk feel to it,
and I like to use Main Riff 1 to warm up before a set.


  Intro Riff
G |-----------------------------------|
D |-------------------------------3---|
A |-'-----'-'----'----'-----3-4-5-----|
E |-0--00-0-0----0--00-0--------------|
                            s s s s

  Main Riff 1                       1st time      2nd time
G |--------------------------5-3---|-----3--3h5--|-------3-|
D |---5-3--------3--3h5----------5-|-3h5---------|-3-4-5---|
A |-------5--3h5-----------3-------|-------------|---------|
E |-3------------------------------|-------------|---------|

                                                  s s s s
  Main Riff 2
G |---------------------------|
D |-----------------'-'-'-----|
A |-----1-3-5-----1-3-3-3-----|
E |-1-3-------1-3-------------|


  Main Riff 3
G |--------------------------------------------------------|
D |--------------------------------------------------------|
A |-----------1--3----------------1--3---------------------|
E |-1--3----------------1--3-------------------------------|


  Chorus
G |-------------------3-3-0--------------------------------|
D |--------------------------------------------------------|
A |-2--2-3--3-5--5-6---------2--2-3--3-5--5-0--6-6-5-0-----|
E |--------------------------------------------------------|
    s  s s  s s  s s  o o o  s  s s  s s  s s  s s s s

  End of Chorus
G |--------------------------------------------------------|
D |--------------------------------------------------------|
A |-3-3--3-3--3-3--3-3--3-3--3-3---3-----1-3-----1-3-----1-|
E |----------------------------------1-3-----1-3-----1-3---|
    s s  s s  s s  s s  s s  s s

Order:	Intro
		Main Riff 1 (X2)
		Main Riff 2 (X4)
		Main Riff 3 (X1)
		Main Riff 2 (X1)
		< drum break>
		Chorus (X2)
		End of Chorus (X1)
		Main Riff 1 (X2)
		Main Riff 3 (X1)
		Main Riff 2 (X2)
		Main Riff 1 (X4)
		
		Chorus (X2)
		End of Chorus (X1)


______________________________________________________
"Do not follow where a path may lead; Go instead where
there is no path and leave a trail." - Author unknown





Comments


Popular Jazzberry Ram tabs & chords
Commodore Bass Tabs
Dont You Love Yourself Bass Tabs
Lonely Bass Tabs
Pablo Jack Horner Bass Tabs
Pablo Jack Horner 1 Bass Tabs
Proud Bass Tabs
Shoe Shine Bass Tabs
Too Mice Bass Tabs
Two Mice Bass Tabs
Two Mice 1 Bass Tabs


Song lyrics



↑ Back to top | Tablatures and chords are parodies/interpretations of the original songs. You may use it for private study, scholarship, research or language learning purposes only
© 2014 AZChords.com Contact us | Privacy policy | DMCA | Add/correct tabs | Request tabs | Top 50 tabs