» » »

Jazzberry Ram, Shoe Shine Bass tabs (ver.1)

Artists:  A B C D E F G H I J K L M N O P Q R S T U V W X Y Z # 

Shoe Shine Bass tabs (ver.1)

Jazzberry Ram Tabs
 Rating:
4/5 (4 votes)
Shoe Shine lessons Tabs too difficult? Try these video lessons and learn fast
                BASS GUITAR TAB
---------------

	Basically, this riff repeats over and over throughout
	the song, with minor variations.  Still fun to play!

G |--------------------------------------------------------|
D |--------------------------------------------------------|
A |--------------------------------------------------------|
E |-0-0-3-4-5-8-10-------------0-0-3-4-5-8-10--------------|


G |--------------------------------------------------------|
D |--------------------------------------------------------|
A |--------------------------------------------------------|
E |12-12-7-6-5-3-5--------------12-12-7-6-5-3-5------------|


G |--------------------------------------------------------|
D |---------------12-10-12-10----------------12-10-12-10---|
A |--------------------------12-------------------------12-|
E |-0-0-3-4-5-8-10-------------0-0-3-4-5-8-10--------------|


G |--------------------------------------------------------|
D |--------------------------------------------------------|
A |---------------12-10-12-10------------------12-10-12-10-|
E |12-12-7-6-5-3-5-----------12-12-12-7-6-5-3-5-----------12|
            
Submit corrections

comments powered by Disqus
↑ Back to top | Jazzberry Ram Bass for Shoe Shine. Lyrics for acoustic guitar and electric guitar. Tablatures and chords are parodies/interpretations of the original songs. You may use it for private study, scholarship, research or language learning purposes only