» » »

Proud Bass tabs (ver.1)

Artists:  A B C D E F G H I J K L M N O P Q R S T U V W X Y Z # 

Proud Bass tabs (ver.1)

Jazzberry Ram
Rating:
0/5 (0 votes)

Hard to play? Try these video lessons and learn fast.
                BASS GUITAR TAB
---------------

	This is the second song on "That Sound We Make".
	I'm not sure it's entirely correct, but for the
	most part I think this is okay.

  Intro:

G |--------------------------------------------------------|
D |--------------------5-5-5-3-------------------5-5-5-3---|
A |-0/5-5-3-5-8-5-3-------------5-5-3-5-8-5-3--------------|
E |-----------------3-------------------------3------------|


G |--------------------------------------------------------|
D |--------------------5-5-5-3-----------------------------|
A |-0/5-5-3-5-8-5-3-------------5-5-3-5-8-5-3--------------|
E |-----------------3-------------------------3------------|

  Riff A:

G |--------------------------------------------------------|
D |------------------'-------------------------------------|
A |-5-5-5-3--------'-7-6----5-5-5-3--------------2-1-------|
E |---------5-3--0-3----------------5-3--0-3-0-3-----------|
  (Well he gots lots of little red spots on his arms...)

G |--------------------------------------------------------|
D |--------------------------------------------------------|
A |-------------------------------5-5-5-3------------------|
E |-5-5-5-3-2-1--0-1-0-2-0-3-0------------5-3--------------|

  Riff B:

G |--------------------------------------------------------|
D |-------------'--------------'---------------------------|
A |------7-5-3-2-------7-5-3-2-------7-5-3-2--3-2-0-2-0----|
E |-2-5-----------2-5-----------2-5---------------------3--|
  (Bull in the archival china shop of brit pop...)

G |--------------------------------------------------------|
D |-----------5-3-2--3-2-0---------------------------------|
A |-----7-5-7-------------------7-5-3-2--3-2-0-2-0---------|
E |-2-5---------------------2-5--------------------3-------|


G |--------------------------------------------------------|
D |--------------------------------------------------------|
A |-----7-5-3--2-------------------------------------------|
E |-2-5----------------------------------------------------|

  Riff C:

G |--------------------------------------------------------|
D |------'-'-'-'-------------'-'-8-7-5--7-5-3--------------|
A |-3--3-7-7-2-2--------3--3-7-7---------------------------|
E |-------------5-3-5--------------------------------------|
  (Pop melody like demons in her head...)

  Riff D:

G |--------------------------------------------------------|
D |--------------------------------------------------------|
A |---'------------'------------'------------'-------------|
E |-5-5----------3-3----------5-5----------3-3-------------|
  (She's been stressin' cuz she thinks...)

G |--------------------------------------------------------|
D |----------5------------3------------5------------3------|
A |---'-0h5-7-7----'-0h3-5-5----'-0h5-7-7----'-0h3-5-5-----|
E |-5-5----------3-3----------5-5----------3-3-------------|

  End with:

G |--------------------------------------------------------|
D |------------------5-5-5-3-------------------5-----------|
A |-5-5-3-5-8-5-3-------------5-5-3-5-8-5-3----------------|
E |---------------3-------------------------3--------------|
            
Hard to play? Try these video lessons and learn fast. | Correct




comments powered by Disqus
↑ Back to top | Tablatures and chords are parodies/interpretations of the original songs. You may use it for private study, scholarship, research or language learning purposes only