» » »

Lonely Bass tabs (ver.1)

Artists:  A B C D E F G H I J K L M N O P Q R S T U V W X Y Z # 

Lonely Bass tabs (ver.1)

Jazzberry Ram
Rating:
0/5 (0 votes)

Hard to play? Try these video lessons and learn fast.
                BASS GUITAR TAB
---------------

	This one's a little slower, but it's a beautiful
	song to play.  Even their slow tunes kick ass!!

  Verse 1:

G |--------------------------------------------------------|
D |-----------4-5-----------------4-5----------------------|
A |-2---4-5---------5---2---4-5---------5------------------|
E |--------------------------------------------------------|

  First Chorus:

G |--------------------------------------------------------|
D |---------0---7---5--------------------------------------|
A |-0---7---------------5---0---7---5---0---3---5----------|
E |--------------------------------------------------------|

  Verse 2:

G |--------------------------------------------------------|
D |-----------4-5-----------------4-5----------------------|
A |-2---4-5---------5---2---4-5---------5------------------|
E |--------------------------------------------------------|


G |-------------'------------------------------------------|
D |-----'---0-2-4---5--------12-11-------------------------|
A |-2-4-5---------------5---9-----12-----------------------|
E |--------------------------------------------------------|

  Second Chorus:

G |--------------------------------------------------------|
D |---------0---7---5------12-11---------------------------|
A |-0---7---------------5-9-----12---0---7---5---0---3---5-|
E |--------------------------------------------------------|

  After-Chorus:

G |---------------------------------------------------3----|
D |-----------5--------------------------------------------|
A |-2---4-5-------5---5-7---9-9-9-9---------7-7-7-7--------|
E |---------------------------------7-7-7-7----------------|


G |---------------------3/12-------------------------------|
D |--------------------------------------------------------|
A |-9---------------7--------------------------------------|
E |---------7----------------------------------------------|

  Verse 3:

G |--------------------------|
D |----5-----2-----5-----2---|  Repeat many times,
A |-5-----2-----5-----2------|  then on the last one
E |--------------------------|  play the following:


G |--------------------------------------------------------|
D |----5--9-7-5-----------------9--------------------------|
A |-5-----------9-7-5---2---5-------5---2---5---2-4-5/12---|
E |--------------------------------------------------------|


G |--------------------------------------------------------|
D |------5-5-5-----2-2-2--------9--------------------------|
A |-5-5-5-----2-2-2-----2---5-------5---2---5---2-4-5/12---|
E |--------------------------------------------------------|

  End with:

G |-----12-----9------12--16--14---------------------------|
D |-12------9-----12---------------------------------------|
A |--------------------------------------------------------|
E |--------------------------------------------------------|
            
Hard to play? Try these video lessons and learn fast. | Correct




comments powered by Disqus
↑ Back to top | Tablatures and chords are parodies/interpretations of the original songs. You may use it for private study, scholarship, research or language learning purposes only