» » »

Jazzberry Ram, Commodore Bass tabs (ver.1)

Artists:  A B C D E F G H I J K L M N O P Q R S T U V W X Y Z # 

Commodore Bass tabs (ver.1)

Jazzberry Ram Tabs
 Rating:
4/5 (4 votes)
Commodore lessons Tabs too difficult? Try these video lessons and learn fast
                BASS GUITAR TAB
---------------

	Wait awhile for the piano intro and first verse,
	then bass comes in for the first chorus.

  Chorus:

G |--------------------------------------------------------|
D |-------9-----------9-----------9-----------9------------|
A |-4--7-----9--4--7-----9--4--7-----9--4--7-----9---4-----|
E |--------------------------------------------------------|

G |------------------9--9-11-13-11---|
D |-9--9-11-13-11--------------------|  Repeat second part.
A |----------------------------------|
E |----------------------------------|

  Then after the chorus there's a little bass solo:

G |-16-16-14-12-14-12-9-11---9-11-9------------------------|
D |---------------------------------12-9-------------------|
A |--------------------------------------12----------------|
E |--------------------------------------------------------|

G |-16-16-14-12-14-12-9-11---9-11-9------------------------|
D |---------------------------------12-9-------------------|
A |--------------------------------------------------------|
E |--------------------------------------------------------|

  Verse:

G |--------------------------------------------------------|
D |----------------------------------------------15-12--9--|
A |-2--4--5--7--2--4--5--7--2--4--5--7--2--4--9------------|
E |--------------------------------------------------------|

  Repeat chorus, then on the last part:

G |-------------------------------------|
D |-9--9-11-13-11----2--2-4-6-4--2------|
A |---------------------------------2---|
E |-------------------------------------|

  During musical interlude:

G |------------------------------------------------------'-|
D |-0-2----2-0--4-4-4-4-4-4-4-4-4-4-4-4--4-2----0-2----2-0-|
A |-----2------------------------------------2------2------|
E |--------------------------------------------------------|

  When the lyrics start again:

G |-----------------------------------------------|
D |----------------------------------2-2-2-2-1----|  Repeat.
A |--------0-1-2--2-2-1-0--------0-1-----------4--|
E |-3--3-3----------------3--3-3------------------|

  Repeat second part of chorus and end with:

G |--------------------------------------------------------|
D |-9--9-11-13-11--2--2-4-6-4--------------2--2-4-6-4--2---|
A |----------------------------2--2-4-6-4----------------2-|
E |--------------------------------------------------------|
            
Submit corrections

comments powered by Disqus
↑ Back to top | Jazzberry Ram Bass for Commodore. Lyrics for acoustic guitar and electric guitar. Tablatures and chords are parodies/interpretations of the original songs. You may use it for private study, scholarship, research or language learning purposes only