» » »

Jay-Z, Dirt Of Your Shoulders Bass tabs (ver.1)

Artists:  A B C D E F G H I J K L M N O P Q R S T U V W X Y Z # 

Dirt Of Your Shoulders Bass tabs (ver.1)

Jay-Z Tabs
 Rating:
4/5 (4 votes)
Dirt Of Your Shoulders lessons Tabs too difficult? Try these video lessons and learn fast
                credit to songsterr for sheet music. pretty simple song, going to put one under 
jay-z and under linkin park. listen for timing.

Rest 18 bars then:
F|---------------|---|---------------|-------------|---------------|
C|---------------|---|---------------|-------------|---------------|
G|---------------|---|---------------|-------------|---------------|
C|-2-2-----------|---|-5-5-----------|--0-0--0--0--|-2-2-----------|

F|----------------|------------|
C|----------------|------------|
G|----------------|------------|
C|-5--5--5-5--5~--|--0-0--0--0-|   X1

F|---------------|---|---------------|-------------|
C|---------------|---|---------------|-------------|
G|---------------|---|---------------|-------------|
C|-2-2-----------|---|-5-5-----------|--0-0--0--0--|    X5

F|---------------|---|---------------|-------------|
C|---------------|---|---------------|-------------|
G|---------------|---|---------------|-------------|
C|-2-2-----------|---|-5-5-----------|-----X-X-X-X-|    X1

F|---------------|---|---------------|-------------|
C|---------------|---|---------------|-------------|
G|---------------|---|---------------|-------------|
C|-2-2-----------|---|-5-5-----------|--0-0--0--0--|    X7

F|---------------|---|---------------|---|
C|---------------|---|---------------|---|
G|---------------|---|---------------|---|
C|-2-2-----------|---|-5-5-----------|---|              X1

F|---------------|---|---------------|-------------|
C|---------------|---|---------------|-------------|
G|---------------|---|---------------|-------------|
C|-2-2-----------|---|-5-5-----------|--0-0--0--0--|    X5

F|---------------|---|------------|-------------|---------------|---|
C|---------------|---|------------|-------------|---------------|---|
G|---------------|---|------------|-------------|---------------|---|
C|-2-2-----------|---|-5--5--5--5-|-5-7-7--7--7-|-2-2-----------|---|

F|------------|---------------|---------------|---|------------|
C|------------|---------------|---------------|---|------------|
G|------------|---------------|---------------|---|------------|
C|-5--5--5--5-|-5-0-0--0--0-0-|-5-5-----------|---|-7--7--7--7-|

F|---------------|---------------|---|------------|---------------|
C|---------------|---------------|---|------------|---------------|
G|---------------|---------------|---|------------|---------------|
C|-7-0-0--0--0-0-|-2-2-----------|---|-5--5--5--5-|-5-0-0--0--0-0-|
                      this last bar X3
F|---------------|---|------------|
C|---------------|---|------------|
G|---------------|---|------------|
C|-5-5-----------|---|-7--7--7--7-|

F|---------------|-----------------|    |--------------|-----------------|
C|---------------|-----------------|    |--------------|-----------------|
G|---------------|-----------------|    |--------------|-----------------|
C|-7-0-0--0--0-0-|-0-2-2-1--0--3~--| X1 |--2--1--0-6-6-|-0-2-2-1--0--3~--| X3

F|---------------|-----------------|    |--------------|-----------------|
C|---------------|-----------------|    |--------------|-----------------|
G|---------------|-----------------|    |--------------|-----------------|
C|--2--1-X-X-X-X-|-0-2-2-1--0--3~--| X1 |--2--1--0-6-6-|-0-2-2-1--0--3~--| X3

F|---------------|---|------------|---------------|---------------|---|
C|---------------|---|------------|---------------|---------------|---|
G|---------------|---|------------|---------------|---------------|---|
C|-2-2-----------|---|-5--5--5--5-|-5-0-0--0--0-0-|-5-5-----------|---|

F|------------|---------------|---------------|---|------------|
C|------------|---------------|---------------|---|------------|
G|------------|---------------|---------------|---|------------|
C|-7--7--7--7-|-7-0-0--0--0-0-|-2-2-----------|---|-5--5--5--5-|
                                     |          X3|
F|---------------|---------------|---|------------|---------------|
C|---------------|---------------|---|------------|---------------|
G|---------------|---------------|---|------------|---------------|
C|-5-0-0--0--0-0-|-5-5-----------|---|-7--7--7--7-|-7-0-0--0--0-0-|

Thats it.
            
Submit corrections

comments powered by Disqus
↑ Back to top | Jay-Z Bass for Dirt Of Your Shoulders. Lyrics for acoustic guitar and electric guitar. Tablatures and chords are parodies/interpretations of the original songs. You may use it for private study, scholarship, research or language learning purposes only