» » »

Jay-Z, '03 Bonnie And Clyde Tabs (ver.4)

Artists:  A B C D E F G H I J K L M N O P Q R S T U V W X Y Z # 

'03 Bonnie And Clyde Tabs (ver.4)

Jay-Z Tabs
 Rating:
4/5 (4 votes)
'03 Bonnie And Clyde lessons Tabs too difficult? Try these video lessons and learn fast
                
its a pretty easy song. i heard it on the radio and decided to learn it and it took me less than 5 mins to figure it out.

    -----------
     Main Riff
    -----------

e--------1-1-0-|------------------|------
b--3-----------|--------0---3-1---|------
g----2-2-------|--2-------1-----1-|--0-1-
d--------------|----2-2-----------|------
a--------------|------------------|------
e--------------|------------------|------

    ---------------------
     Small Riff #1 (1:15)
    ----------------------
e--5-7-8-10-8-7-5-|-5-7-8-10-8-7-8-7-5|-7-8--
b--------------------------------------------
g--------------------------------------------
d--------------------------------------------
a--------------------------------------------
e--------------------------------------------

    ----------------------
     Small Riff #2 (1:46)
    ----------------------

e-12-10-10-7-8-10-10-8-5-|-12-10-10-7-8-10-10-8-5-|-7-8--
b--------------------------------------------------------
g--------------------------------------------------------
d--------------------------------------------------------
a--------------------------------------------------------
e--------------------------------------------------------

thats about is folks. that small riff #2 comes in again when beyoncé has her solo.
~aDam
            
Submit corrections

comments powered by Disqus
↑ Back to top | Jay-Z Tabs for '03 Bonnie And Clyde. Lyrics for acoustic guitar and electric guitar. Tablatures and chords are parodies/interpretations of the original songs. You may use it for private study, scholarship, research or language learning purposes only