» » »

Jay And The Americans, Cara Mia Bass tabs (ver.1)

Artists:  A B C D E F G H I J K L M N O P Q R S T U V W X Y Z # 

Cara Mia Bass tabs (ver.1)

Jay And The Americans Tabs
 Rating:
4/5 (4 votes)
Cara Mia lessons Tabs too difficult? Try these video lessons and learn fast
                Fingering and positions as suggested by TablEdit, please use common sense.

Cara Mia _ Jay and the Americans

TablEdited by Jan.Bjorklund
Tuning : E A D G 	Time Signature: 4/4

 |       |       |       |        |       |       |       |        
|----------------------0-0-------|------4-4-------------5-5-------|
|--------------------------------|2-------------2-3-------------3-|
|----------------3-------------3-|--------------------------------|
|--------------------------------|--------------------------------|

 |       |       |       |        |       |       |       |        
|------0-0-----------------------|0-----0-2-----------------------|
|----------------3-----3-3-------|----------------3-----3-3-------|
|3-------------3---------------3-|--------------3---------------3-|
|--------------------------------|--------------------------------|

 |       |       |       |        |       |       |       |        
|0-----0-0-----0-------0-0-------|2-----2-2-------------5-5-------|
|--------------------------------|----------------3-------------3-|
|----------------3-------------3-|--------------3-----------------|
|--------------------------------|--------------------------------|

 |       |       |       |        |       |       |       |        
|0---0-0---0-0---------0-0-------|------4-4-------------5-5-------|
|--------------------------------|2-------------2-3-------------3-|
|----------------3-------------3-|--------------------------------|
|--------------------------------|--------------------------------|

 |       |       |       |        |       |       |       |        
|------0-0-------------5-5-------|------2-2-------------5-5-------|
|----------------3-------------3-|--------------2-3-------------3-|
|3-------------3-----------------|3-------------------------------|
|--------------------------------|--------------------------------|

 |       |       |       |        |       |       |       |        
|0-----7-7---7-0-------0-0-------|------4-4-------------5-5-------|
|--------------------------------|2-------------2-3-------------3-|
|----------------3-------------3-|--------------------------------|
|--------------------------------|--------------------------------|

 |       |       |       |        |       |       |       |        
|------0-0-----------------------|0-----0-2-----------------------|
|----------------3-----3-3-------|----------------3-----3-3-------|
|3-------------3---------------3-|--------------3---------------3-|
|--------------------------------|--------------------------------|

 |       |       |       |        |       |       |       |        
|0-----0-0-----0-------0-0-------|2-----2-2-------------5-5-------|
|--------------------------------|----------------3-------------3-|
|----------------3-------------3-|--------------3-----------------|
|--------------------------------|--------------------------------|

 |       |       |       |        |       |       |       |        
|------0-0-----0-------0-0-------|------4-4-------------5-5-------|
|0-------------------------------|2-------------2-3-------------3-|
|----------------3-------------3-|--------------------------------|
|--------------------------------|--------------------------------|

 |       |       |       |        |       |       |       |        
|------0-0-------------5-5-------|------2-2-------------5-5-------|
|----------------3-------------3-|--------------2-3-------------3-|
|3-------------3-----------------|3-------------------------------|
|--------------------------------|--------------------------------|

 |       |       |       |        |       |       |       |        
|0-----7-7-----0-0-----7-7-----0-|0-----7-7-----0-0-----7-7-----0-|
|--------------------------------|--------------------------------|
|--------------------------------|--------------------------------|
|--------------------------------|--------------------------------|

 |       |       |       |        |       |       |       |        
|0-0-------------------0-0-------|------4-4-------------5-5-------|
|----3-3-2-2-0-0-----------------|2-------------2-3-------------3-|
|----------------3-------------3-|--------------------------------|
|--------------------------------|--------------------------------|

 |       |       |       |        |       |       |       |        
|------0-0-----------------------|0-----0-2-----------------------|
|----------------3-----3-3-------|----------------3-----3-3-------|
|3-------------3---------------3-|--------------3---------------3-|
|--------------------------------|--------------------------------|

 |       |       |       |        |       |       |       |        
|0-----0-0-----0-------0-0-------|2-----2-2-------------5-5-------|
|--------------------------------|----------------3-------------3-|
|----------------3-------------3-|--------------3-----------------|
|--------------------------------|--------------------------------|

 |       |       |       |        |       |       |       |        
|0-----7-7-----0-------0-0-------|2-----2-2-------------5-5-------|
|--------------------------------|----------------3-------------3-|
|----------------3-------------3-|--------------3-----------------|
|--------------------------------|--------------------------------|

 |       |       |       |        |       |       |       |        
|0-----7-7-----0-----0-0-----0-0-|----0-0-----0-0-----0-0-----0-0-|
|--------------------------------|--------------------------------|
|----------------3-------3-------|3-------3-------3-------3-------|
|--------------------------------|--------------------------------|

 |       |       |       |        
|--------------------------------|
|--------------------------------|
|3-------------------------------|
|--------------------------------|
            
Submit corrections

comments powered by Disqus
↑ Back to top | Jay And The Americans Bass for Cara Mia. Lyrics for acoustic guitar and electric guitar. Tablatures and chords are parodies/interpretations of the original songs. You may use it for private study, scholarship, research or language learning purposes only