>
 >
Shirt

Shirt Guitar Tabs

Jawbreaker - Shirt chords, tabs, tablatures, lyrics

Guitar lessons | Add/correct | Request | Top 50 tabs Artists:  A B C D E F G H I J K L M N O P Q R S T U V W X Y Z 0-9

Shirt Guitar Tabs – Jawbreaker

CD, Sheet music, Poster

Do you like Shirt? Share with your friends now
Tabs
Jawbreaker
Dear You [Reissue]

Standard tuning

Chords
   B5  G#5   G5  F#5   E5
e-------------------------|
B-------------------------|
G--4----------------------|
D--4----6----5----4----2--|
A--2----6----5----4----2--|
E-------4----3----2----0--|

Intro
B

Verse 1
             B                   G#
You're at my house, you're in my clothes
       G
No one knows knows
B            G#               G
You're in my head like a dumb song
        F#
It just goes, goes
B            G#                 G
You're on my lips, you're on my face
       F#
And it shows, shows
B           G#          G
I should be happy and I am
F#               E
I want you close to me

Verse 2
B             G#      G     F#
You're like a simile, like, totally
B             G#         G     F#
You're like a deep sleep to an insomniac
B               G#    G      F#
You're like the ocean floor, vast and cool
B             G#       G
You're like a swimming pool
F#                        E
Hypnotic blue, and I fell in
           F#              E
So take my hand, swim around
        F#            E
Kiss me hard, until I drown

Chorus
B       F#      E
I wanna be your shirt.
B        F#                E
So I can hug you while you work.
B       F#      E
I wanna be your wife.
B          F#            E
So You can beat me every night.

Verse 3
B             G#           G      F#
You're like a toothpick to teeth, mintiful
B             G#       G   F#
You're like a metaphor for something else
B            G#   G     F#
Youre like a teen flick soundtrack
B              G#     G          F#
You're sharper than a Ginsu thumbtack
           E
You cut my can
           F#                  E
Say you're mine, i'll give you back
           F#                     E
Take these hands, they'll squeeze back

Chorus - 1x

Solo (Rhythm plays chorus chords)
e--------------------------------------------------4-2-4-5-4-2--|
B--5-4-5-7-5-4-5-4-2-0--5-4-5-7-5-4-0--5-4-5-7-5-7-0-0-0-0-0-0--|
G--4-4-4-4-4-4-4-4-4-4--4-4-4-4-4-4-4--4-4-4-4-4-4--------------|
D---------------------------------------------------------------|
A---------------------------------------------------------------|
E---------------------------------------------------------------|

e--------------11-11-11-11-11-11-11-11--|
B--5-4-5-7-5-4-12-12-12-12-12-12-12-12--|
G--4-4-4-4-4-4--------------------------|
D---------------------------------------|
A---------------------------------------|
E---------------------------------------|

Final Chorus
B       F#      E
I wanna be your girl
B          F#             E
So you can hold me like a girl
B       F#      E
I wanna be your shrink
B           F#                E
So i'll get paid to watch you think

HOORAH!





Comments


Popular Jawbreaker tabs & chords
The Boat Dreams From The Hill 1 Bass Tabs
Bad Scene Everyones Fault Chords
In Sadding Around Chords
Oyster Chords
Jet Black Tabs
Outpatient Tabs
Oyster Tabs
Sluttering Tabs
Want 2 Tabs
Chesterfield Kind Ukulele


Song lyrics



↑ Back to top | Tablatures and chords are parodies/interpretations of the original songs. You may use it for private study, scholarship, research or language learning purposes only
© 2014 AZChords.com Contact us | Privacy policy | DMCA | Add/correct tabs | Request tabs | Top 50 tabs