» » »

Save Your Generation Tabs (ver.2)

Artists:  A B C D E F G H I J K L M N O P Q R S T U V W X Y Z # 

Save Your Generation Tabs (ver.2)

Jawbreaker
Rating:
5/5 (4 votes)

Hard to play? Try these video lessons and learn fast.
                #------------------------------------------------------------------------------##



verse:

--------------------------
--------------------------
-----6-----4-----8-----4--
--3--6--2--4--4--8--6--4--
--3--4--2--2--4--6--6--2--
--1-----0-----2-----4-----

chords are palm muted, and each played 8 times in a row. repeat this
sequence for the verse


pre-chorus:

--------    play the f# a few times, and then
--------    play the b. repeat this a few times
-----4--
--4--4--
--4--2--
--2-----


chorus:

-----------------------   again, play each chord
-----------------------   several times (rhythm is not
-----8--6--4-----4-----   shown). also, at the end of
--4--8--6--4--6--4--4--   each part, play the pre-
--4--6--4--2--6--2--4--   chorus thing
--2-----------4-----2--

-----------------------------
-----------------------------
-----8--6--4--7--6--9--4-----
--4--8--6--4--7--6--9--4--4--
--4--6--4--2--5--4--7--2--4--
--2-----------------------2--


other part:

F#            D
you ..

     E                D
to ..

F#        D
you ..

E                 C#
to ..

(palm muting)

F#               D
the ...

E                D
some ..

F#       D
a simple rule:

C#
every ...
            
Hard to play? Try these video lessons and learn fast. | Correct




comments powered by Disqus
↑ Back to top | Tablatures and chords are parodies/interpretations of the original songs. You may use it for private study, scholarship, research or language learning purposes only