» » »

Save Your Generation Tabs (ver.1)

Artists:  A B C D E F G H I J K L M N O P Q R S T U V W X Y Z # 

Save Your Generation Tabs (ver.1)

Jawbreaker
Rating:
0/5 (0 votes)

Hard to play? Try these video lessons and learn fast.
                This is my first tab.  Sorry if I screw up.

Jawbreaker
Dear You

Standard Tuning
Distortion


Verse


e|---------------------------------------------------------------------|G
B|---------------------------------------------------------------------|U
G|--------666666666--------44444444--------88888888--------44444444----|I
D|33333333666666666222222224444444444444444888888882222222244444444|T
A|33333333444444444222222222222222244444444666666662222222222222222|A
E|11111111---------00000000--------22222222--------00000000--------|R
pm.................................................................|


Bridge


e|--------------------|G
B|--------------------|U
G|--44--44--44--44----|I
D|4444444444444444|T
A|4422442244224422|A
E|22--22--22--22--|R


Chorus


e|------------------------------------------------------------------------|G
B|------------------------------------------------------------------------|U
G|-------8-88-8888-6-66-6666-4-44-4444-------4-44-4444-------4------------|I
D|4-4-4448-88-8888-6-66-6666-4-44-44446-6-6664-44-4444444444-444444444----|T
A|4-4-4446-66-6666-4-44-4444-2-22-22226-6-6662-22-2222444444-244444444----|A
E|2-2-222-----------------------------4-4-444---------222222--22222222----|R


e|---------------------------------------------------------------------------|G
B|---------------------------------------------------------------------------|U
G|-------8-88-8888-6 66-6666-4-44-44448-8-888-6-66-6666----------4-44-444----|I
D|4-4-4448-88-8888-6-66-6666-4-44-44448-8-888-6-66-6666-2-22-222-4-44-444----|T
A|4-4-4446-66-6666-4-44-4444-2-22-22226-6-666-4-44-4444-2-22-222-2-22-222----|A
E|2-2-222-----------------------------------------------0-00-000-------------|R


e|--------------------|G
B|--------------------|U
G|-------4------------|I
D|444444-444444444|T
A|444444-244444444|A
E|222222--22222222|R


Verse

Bridge

Chorus

Interlude (I'm not too sure about this part)

e|-------------------------|
B|-------------------------|
G|--------8---------------8|
D|4-------8-------2-------8|(x2)
A|4-------6-------2-------6|
E|2---------------0--------|


e|------------------------------------|G
B|------------------------------------|U
G|--------88888888--------88888888----|I
D|44444444888888882222222288888888|T
A|44444444666666662222222266666666|A
E|22222222--------00000000--------|R
pm ...............................|


Bridge (x2)[On the second time there is a pickslide]


Chorus


End on this:

e|-----------|G
B|--let ring-|U
G|---------------|I
D|4~-------------|T
A|4~-------------|A
E|2~-------------|R


Jawbreaker uses a lot of distortion so it was hard to tell what chords they were
but I'm sure this is pretty accurate.

Enjoy.
            
Hard to play? Try these video lessons and learn fast. | Correct




comments powered by Disqus
↑ Back to top | Tablatures and chords are parodies/interpretations of the original songs. You may use it for private study, scholarship, research or language learning purposes only