» » »

Jawbreaker, Oyster Tabs (ver.1)

Artists:  A B C D E F G H I J K L M N O P Q R S T U V W X Y Z # 

Oyster Tabs (ver.1)

Jawbreaker Tabs
Rating:
5/5 (3 votes)
Oyster lessons Tabs too difficult? Try these video lessons and learn fast
                Jawbreaker
Dear You

Standard tuning
Chords
  G5  A5  B5  E5  C5  G5/F#5  D5
e---------------------------------|
B---------------------------------|
G------2---4-------5-----------7--|
D--5---2---4---2---5---5-------7--|
A--5---0---2---2---3---5-------5--|
E--3-----------0-------2----------|

Intro
e--------------------------------------|
B--------------------------------------|
G--------------------------------------|
D--5--------2--------4--------5--------|
A--------------------------------------|
E--------------------------------------|
The world is an oyster locked in a shell
You like the taste of it, can't take the smell

Chorus (the lead is something like that)
   G5                  A5
e-------------------------------------------|
B-------------------------------------------|
G-------------------------------------------|
D--5-4-5-4-5-4-5-4-5-4-5-4-5-4-5-4-5-4-5-4--|
A-------------------------------------------|
E-------------------------------------------|
   B5                  E5              C5
e-------------------------------------------|
B-------------------------------------------|
G-------------------------------------------|
D--5-4-5-4-5-4-5-4-5-4-5-4-5-4-5-4-5-4-7-7--|
A-------------------------------------------|
E-------------------------------------------|
   G5                  A5
e-------------------------------------------|
B-------------------------------------------|
G-------------------------------------------|
D--5-4-5-4-5-4-5-4-5-4-5-4-5-4-5-4-5-4-5-4--|
A-------------------------------------------|
E-------------------------------------------|
   B5                  C5
e-------------------------------------------|
B-------------------------------------------|
G-------------------------------------------|
D--5-4-5-4-5-4-5-4-5-4-5-4-5-4-5-4-5-4-7-7--|
A-------------------------------------------|
E-------------------------------------------|

Verse (palm muted)
B5
I can't sleep to save my life
C5
The day is done but i don't
G5      G5/F#5 E5    C5 (w/fill)
Think i got it right
B5
I don't want to kiss right now
C5
You're probably just what i need
G5          G5/F#5     E5    C5 (w/fill)
But i can't stand your mouth

Fill
e---------------------|
B---------------------|
G---------------------|
D-0-------4------5----|
A---------------------|
E---------------------|

Chorus
G5              A5     B5          E5   C5
The world is an oyster locked in a shell
G5           A5          B5             C5
You like the taste of it can't take the smell

Verse 2 (palm muted)
I dot my t's and cross my i's (fill 2)
Pretend that i can write
I haven't got a nice thing to say
About anyone ex-
-cept the one who caught me staring
So i just walked away

Fill 2
e-----------|
B-----------|
G-----------|
D--4/5/4----|
A--------3--|
E-----------|

Bridge (let each chord ring out)
D5
No ones likes to give themselves
E5                C5
Over to an empty bed
                           G5
If you're gonna sleep like that
         A5               C5
Then you might as well be dead
But you still want all the covers
And no hair tickling your face
You're so proud of your physique
But you still want your cake
I got it!

Chorus

Outro Chorus
[This chorus is the same, just a different lead.
 Something like this:]
e----------------------|------------|
B--7-6-7-6-7-6-7-6-7-6-|-7-6--------|
G----------------------|-----7---7--|
D----------------------|------------| At the very end,
A----------------------|------------| something like this
E----------------------|------------| happens

End on G5

And....that's about it! I guess.
            

comments powered by Disqus
↑ Back to top | Jawbreaker Tabs for Oyster. Lyrics for acoustic guitar and electric guitar. Tablatures and chords are parodies/interpretations of the original songs. You may use it for private study, scholarship, research or language learning purposes only