>
 >
Outpatient

Outpatient Guitar Tabs

Jawbreaker - Outpatient chords, tabs, tablatures, lyrics

Guitar lessons | Add/correct | Request | Top 50 tabs Artists:  A B C D E F G H I J K L M N O P Q R S T U V W X Y Z 0-9

Outpatient Guitar Tabs – Jawbreaker

CD, Sheet music, Poster

Do you like Outpatient? Share with your friends now
Tabs
Jawbreaker - Outpatient


Not 100% sure about the solo since there's a lot of extra noise, but the rest should be good.


Intro:
   B   (E)  F#5      A         F#5            A5           B5
E---------------------------------------------------------|------------|
B---------------------------------------------------------|------------|
G-8-------------------------------------------------------|------------|
D-x-------------------------------------------------------|-9----------|
A-6----7----4-------4---4-----4--4-4-4-4-4-7---7-7--7-7-7-|-9----------|
E-7----0----2-----5---5----5--2--2-2-2-2-2-5---5-5--5-5-5-|-7----------|



Verse:  (Play 4 times)
  B (E) F#5      A         F#5            A5         B5      B5/A
E--------------------------------------------------|--------------------|
B--------------------------------------------------|--------------------|
G-8------------------------------------------------|4-4-4-4-4-4-4-4-4-4-|
D-x------------------------------------------------|4-4-4-4-4-4-4-4-4-4-|
A-6--7--4-----4---4-----4--4-4-4-4-4-7--7-7--7-7-7-|2-2-2-2-2-0-0-0-0-0-|
E-7--0--2---5---5----5--2--2-2-2-2-2-5--5-5--5-5-5-|--------------------|

E---------------------|
B---------------------|
G-4-4-4-4-4-4-4-4-4-4-|
D-4-4-4-4-4-4-4-4-4-4-|
A-2-2-2-2-2-0-0-0-0-0-|
E---------------------|


Chorus:  (play twice)
  D#5          E5             C#5           B5
E-------------------------------------------------------|
B-------------------------------------------------------|
G-8--8--8-8-8--9--9-9--9-9-9-6-6--6-6-6--4--4-4--4-4-4--|
D-8--8--8-8-8--9--9-9--9-9-9-6-6--6-6-6--4--4-4--4-4-4--|
A-6--6--6-6-6--7--7-7--7-7-7-4-4--4-4-4--2--2-2--2-2-2--|
E-------------------------------------------------------|

  C#5          A5             B5           B5/A
E----------------------------|---------------------------||
B----------------------------|--------------------------o||
G-6--6--6-6-6--2--2-2--2-2-2-|4-4--4-4-4--4--4-4--4-4-4--||
D-6--6--6-6-6--2--2-2--2-2-2-|4-4--4-4-4--4--4-4--4-4-4--||
A-4--4--4-4-4--0--0-0--0-0-0-|2-2--2-2-2--0--0-0--0-0-0-o||
E----------------------------|---------------------------||


E--------------------------|
B--------------------------|
G--------------------------|
D-6--6--6-6-6--7--6--6--9-9|
A-x--x--x-x-x--x--x--x--x-x|
E-4--4--4-4-4--5--4--4--7-7|

GUITAR SOLO

E---------------------------------------------------------------------|
B---------------------------------------------------------------------|
G-6-6--------8-8--------13-13---------13/14-14------------------------|
D-x-x--------x-x---------x--x----------x------------------------------|
A-4-4--------6-6--------11-11---------11/12-12------------------------|
E------0--0-------0--0---------0�---------------0--0-----------|

E------------------------------------------------------------------|
B------------------------------------------------------------------|
G-6-6--------8-8--------13-13--------------------------------------|
D-x-x--------x-x--�------x--x-------------------------------|
A-4-4--4-----6-6--6-----11-11-11-----------------------------------|
E---------5----------7------------0---7-7-7-7-9--------------------|

E---------------------------------------------------------------|
B---------------------------------------------------------------|
G-6-6--------8-8--------13-13---------13/14-14------------------|
D-x-x--------x-x---------x--x----------x------------------------|
A-4-4--------6-6--------11-11---------11/12-12------------------|
E------0--0-------0--0---------0--0-------------0--0------------|

E---------------------------------------------------------------|
B---------------------------------------------------------------|
G-6-6--------8-8--------13-13-----------------------------------|
D-x-x--------x-x---------x--x-----------------------------------|
A-4-4--4-----6-6--6-----11-11-11--------------------------------|
E---------5----------7------------0---7-0-7-0-7--0--------------|


Intro again:
   B   (E)  F#5      A         F#5            A5           B5
E---------------------------------------------------------|------------|
B---------------------------------------------------------|------------|
G-8-------------------------------------------------------|------------|
D-x-------------------------------------------------------|-9----------|
A-6----7----4-------4---4-----4--4-4-4-4-4-7---7-7--7-7-7-|-9----------|
E-7----0----2-----5---5----5--2--2-2-2-2-2-5---5-5--5-5-5-|-7----------|


Verse:  (Play  2 times)
  B (E) F#5      A         F#5            A5         B5      B5/A
E--------------------------------------------------|--------------------|
B--------------------------------------------------|--------------------|
G-8------------------------------------------------|4-4-4-4-4-4-4-4-4-4-|
D-x------------------------------------------------|4-4-4-4-4-4-4-4-4-4-|
A-6--7--4-----4---4-----4--4-4-4-4-4-7--7-7--7-7-7-|2-2-2-2-2-0-0-0-0-0-|
E-7--0--2---5---5----5--2--2-2-2-2-2-5--5-5--5-5-5-|--------------------|

E---------------------|
B---------------------|
G-4-4-4-4-4-4-4-4-4-4-|
D-4-4-4-4-4-4-4-4-4-4-|
A-2-2-2-2-2-0-0-0-0-0-|
E---------------------|


Chorus:  (play twice)
  D#5          E5             C#5           B5
E-------------------------------------------------------|
B-------------------------------------------------------|
G-8--8--8-8-8--9--9-9--9-9-9-6-6--6-6-6--4--4-4--4-4-4--|
D-8--8--8-8-8--9--9-9--9-9-9-6-6--6-6-6--4--4-4--4-4-4--|
A-6--6--6-6-6--7--7-7--7-7-7-4-4--4-4-4--2--2-2--2-2-2--|
E-------------------------------------------------------|

  C#5          A5             B5           B5/A
E----------------------------|---------------------------||
B----------------------------|--------------------------o||
G-6--6--6-6-6--2--2-2--2-2-2-|4-4--4-4-4--4--4-4--4-4-4--||
D-6--6--6-6-6--2--2-2--2-2-2-|4-4--4-4-4--4--4-4--4-4-4--||
A-4--4--4-4-4--0--0-0--0-0-0-|2-2--2-2-2--0--0-0--0-0-0-o||
E----------------------------|---------------------------||


E--------------------------|
B--------------------------|
G--------------------------|
D-6--6--6-6-6--7--6--4--6-6|
A-x--x--x-x-x--x--x--x--x-x|
E-4--4--4-4-4--5--4--2--4-4|

Ending:

E---------------------------||----||
B--------------------------o||----||
G---------------------------||----||
D-6--6--6-6-6--7--6--4--6-6-||-6~~||
A-x--x--x-x-x--x--x--x--x-xo||-x~~||
E-4--4--4-4-4--5--4--2--4-4-||-4~~||





Comments


Popular Jawbreaker tabs & chords
Big Bass Tabs
Jinx Removing Chords
Unlisted Chords
Chesterfield Kind Tabs
Chesterfield Kind 1 Tabs
Do You Still Hate Me? Tabs
The Boat Dreams From The Hill Tabs
Bad Scene Everyones Fault Ukulele
Condtion Oakland Ukulele
Million Ukulele


Song lyrics



↑ Back to top | Tablatures and chords are parodies/interpretations of the original songs. You may use it for private study, scholarship, research or language learning purposes only
© 2014 AZChords.com Contact us | Privacy policy | DMCA | Add/correct tabs | Request tabs | Top 50 tabs