>
 >
Million

Million Guitar Tabs

Jawbreaker - Million chords, tabs, tablatures, lyrics

Guitar lessons | Add/correct | Request | Top 50 tabs Artists:  A B C D E F G H I J K L M N O P Q R S T U V W X Y Z 0-9

Million Guitar Tabs – Jawbreaker

CD, Sheet music, Poster

Do you like Million? Share with your friends now
ChordsTabsUkulele


STANDARD tuning




INTRO:

You could just E maj for the first chord for a fuller sound,
that's what I prefer, at least, but this is what Blake does
in the live taping I've seen (I wish I went to a Jawbreaker concert).

E----------------------------|
B---9--9--9--9---------------|
G---9--9--9--9--9--6-6-6-6---|
D---9--9--9--9--9--6-6-6-6-6-|
A---7--7--7--7--7--4-4-4-4-6-|
E--------------------------4-|

    that a few times then




VERSE 1:

             "So excited, so unslept..."

E-----------------0--------0--------0-------0---|
B-------------4--------4--------2-------2-------|
G--9------------4---4----4---4----4---4---4---4-|
D--9--------------------------------------------|
A--7--------------------------------------------|
E-----------------------------------------------|


E------0-------0---2-4-5-4---4-5-7-5-|
B--4-------4-------------------------|
G----4---4---4---4-------------------|
D------------------------------------|
A------------------------------------|
E------------------------------------|

Recognize these notes? (cough cough Jet Black)




PRE-CHORUS:

"I am spilled and poured..."

E---------------------------------------------------|
B---------------------------------------------------|
G--2-----2--4-----4--2-----2--4-----66-666-6-66-666-|
D--2-----2--4-----4--2-----2--4-----66-666-6-66-666-|
A--0-----0--2-----2--0-----0--2-----44-444-4-44-444-|
E---------------------------------------------------|

E------------------------------------------|
B------------------------------------------|
G--88-888-8-88-888----99-999-9-99-999---11-|
D--88-888-8-88-888----99-999-9-99-999---11-|...etc.
A--66-666-6-66-666----77-777-7-77-777---9--|
E------------------------------------------|







Then, SOLOOO:

E-----------------------------------------------------|
B--------------------------------------------------9--|
G--------------------------------------------------9--|
D--------------------6-----------------------------9--|
A--6-7-7-------6-7-9---9-7-66-7-7-----6------------7--|
E---------------------------------------7-4-7---------|






VERSE 2:

E------0-------0---2-4-5-4---4-5------|
B--4-------4--------------------------|
G----4---4---4---4--------------------|
D-------------------------------------|
A-------------------------------------|Slide into
E-------------------------------------|PRE-CHORUS





CHORUS:

"Take me to the pretty ones..."

E-------------------------------------------|
B-------------------------------------------|
G-----------------------6--66666--4--44444--|
D--4--44444---7--77777--6--66666--4--44444--|
A--4--44444---7--77777--4--44444--2--22222--|
E--2--22222---5--55555----------------------|
     .....      ......     .....     .....


E-------------------------------------------|
B-------------------------------------------|
G---------------------------------6--66666--|
D--4--44444---7--77777--2--22222--6--66666--|
A--4--44444---7--77777--2--22222--4--44444--|
E--2--22222---5--55555--0--00000------------|
     .....      ......     .....     .....

. = Palm muted

The pattern of the sustained versus the palm-muted varies, watch out.







VERSE 3:

E------0-------0----------------------|Just keep repeating this stuff
B--4-------4--------------------------|till PRE-CHORUS
G----4---4---4---4--------------------|
D-------------------------------------|
A-------------------------------------|
E-------------------------------------|







The last part's a tiny bit different,(yes, I know I'm being very nitpicky)

"In my perfect world I'd be signed to a nice girl..."

E------0-------0-------0---0-------|
B--4-------4-------2-------4-------|
G----4---4---4---4---4---4-4-------|
D----------------------------------|
A----------------------------------|
E----------------------------------|



Order goes something like this

(sorry, I know I've been confusing)


INTRO
VERSE 1
PRE-CHORUS
SOLO
VERSE 2
PRE-CHORUS
CHORUS
INTRO
VERSE 3
PRE-CHORUS
CHORUS
INTRO
LAST PART




There ya go. You kinda start to hate the album because of how repetitious
the chords are, but damn if it ain't a catchy emo bawwwfest. Great album,
nonetheless. I'm looking at you, Pitchfork.





Comments


Popular Jawbreaker tabs & chords
The Boat Dreams From The Hill Bass Tabs
In Sadding Around Chords
Indictment Chords
Jinx Removing 1 Chords
Oyster Chords
Oyster Tabs
Sluttering Tabs
The Boat Dreams From The Hill Tabs
Basilica Ukulele
Jet Black Ukulele


Song lyrics



↑ Back to top | Tablatures and chords are parodies/interpretations of the original songs. You may use it for private study, scholarship, research or language learning purposes only
© 2014 AZChords.com Contact us | Privacy policy | DMCA | Add/correct tabs | Request tabs | Top 50 tabs