» » »

Jawbreaker, Jet Black Tabs (ver.1)

Artists:  A B C D E F G H I J K L M N O P Q R S T U V W X Y Z # 

Jet Black Tabs (ver.1)

Jawbreaker Tabs
 Rating:
4.3/5 (6 votes)
Jet Black lessons Tabs too difficult? Try these video lessons and learn fast
                
riff 1 (guitar 1)
|-------------------|
|-------------------|
|--6/8~--8/9\8--6~--| x2
|--x/x~--x/x\x--x~--|
|--4/6~--6/7\6--4~--|
|-------------------|

riff 2 (guitar 1)  
|-------------------------------------|
|--4---4---4---4h5p4-2---2---2---2----|
|----4---4---4---------4---4---4---4--| x2
|-------------------------------------|
|-------------------------------------|
|-------------------------------------|

riff 2 (guitar 2) 
|--------------------------------------------------------------|}
|--------------------------------------------------------------|}
|--8-8-8-8-8-8-8-8-9-9-9-9-9-9-9-9-11-11-11-11-11-11-11/13-13--|}
|--8-8-8-8-8-8-8-8-9-9-9-9-9-9-9-9-11-11-11-11-11-11-11/13-13--|}
|--6-6-6-6-6-6-6-6-7-7-7-7-7-7-7-7--9--9--9--9--9--9--9/11-11--|}
|--------------------------------------------------------------|}
                                                                } x2
|-------------------------|                                     }
|-------------------------|                                     }
|--9-9-9-9-9-9-9/11-11-8--|                                     }
|--9-9-9-9-9-9-9/11-11-8--|                                     }  
|--7-7-7-7-7-7-7/-9--9-6--|                                     }
|-------------------------|                                     }

verse riff (guitar 1)
|----------------------------|
|--4---4-----------2---2-----|
|----4---4~----------4---4~--| x3, then "riff 1" x1, then "verse riff" x1
|----------------------------|
|----------------------------|
|----------------------------|

pre chorus (both)
|-------------------------------|
|-------------------------------|
|-----------------4-4-4--6-6-6--|
|---4-4-4--6-6-6--4-4-4--6-6-6--|
|---4-4-4--6-6-6--2-2-2--4-4-4--|
|---2-2-2--4-4-4----------------|
pm  * *    * *    * *    * *

|----------------------------------|
|----------------------------------|
|----------------------------------|
|---4-4-4--6-6-6--7-7-7-7-7-7-7-7--|
|---4-4-4--6-6-6--7-7-7-7-7-7-7-7--|
|---2-2-2--4-4-4--5-5-5-5-5-5-5-5--|
pm  * *    * *

chorus
|-------------------------------------------------------------------|
|-------------------------------------------------------------------|
|--6-6-6-6-6-6-6-6-4-4-4-4-4-4-4-4-2-2-2-2-2-2-2-2-2-2-2-2-2-2-2-2--| x2
|--6-6-6-6-6-6-6-6-4-4-4-4-4-4-4-4-2-2-2-2-2-2-2-2-2-2-2-2-2-2-2-2--|
|--4-4-4-4-4-4-4-4-2-2-2-2-2-2-2-2-0-0-0-0-0-0-0-0-0-0-0-0-0-0-0-0--|
|-------------------------------------------------------------------|
  "Jet       Black            I Am    Stone Cold"  

|-------------------------------------------------------------------|
|-------------------------------------------------------------------|
|------------------4-4-4-4-4-4-4-4-6-6-6-6-6-6-6-6-2-2-2-2-2-2-2-2--|x2
|--2-2-2-2-2-2-2-2-4-4-4-4-4-4-4-4-6-6-6-6-6-6-6-6-2-2-2-2-2-2-2-2--|
|--2-2-2-2-2-2-2-2-2-2-2-2-2-2-2-2-4-4-4-4-4-4-4-4-0-0-0-0-0-0-0-0--|
|--0-0-0-0-0-0-0-0--------------------------------------------------|
         "Funny    Like              A   Funeral"

bridge            
|-------------------------------------------------------------------|}
|-------------------------------------------------------------------|}
|--4-4-4-4-4-4-4-4-6-6-6-6-6-6-6-6-2-2-2-2-2-2-2-2-9-9-9-9-9-9-9-9--|} 
|--4-4-4-4-4-4-4-4-6-6-6-6-6-6-6-6-2-2-2-2-2-2-2-2-9-9-9-9-9-9-9-9--|}
|--2-2-2-2-2-2-2-2-4-4-4-4-4-4-4-4-0-0-0-0-0-0-0-0-7-7-7-7-7-7-7-7--|}
|-------------------------------------------------------------------|}
                                                                     } x2
|-------------------------------------------------------------------|}
|-------------------------------------------------------------------|}
|------------------2-2-2-2-2-2-2-2-6-6-6-6-6-6-6-6-4-4-4-4-4-4-4-4--|}
|--4-4-4-4-4-4-4-4-2-2-2-2-2-2-2-2-6-6-6-6-6-6-6-6-4-4-4-4-4-4-4-4--|}
|--4-4-4-4-4-4-4-4-0-0-0-0-0-0-0-0-4-4-4-4-4-4-4-4-2-2-2-2-2-2-2-2--|}
|--2-2-2-2-2-2-2-2--------------------------------------------------|}
            
Submit corrections

comments powered by Disqus
↑ Back to top | Jawbreaker Tabs for Jet Black. Lyrics for acoustic guitar and electric guitar. Tablatures and chords are parodies/interpretations of the original songs. You may use it for private study, scholarship, research or language learning purposes only