>
 >
Housesitter

Housesitter Guitar Tabs

Jawbreaker - Housesitter chords, tabs, tablatures, lyrics

Guitar lessons | Add/correct | Request | Top 50 tabs Artists:  A B C D E F G H I J K L M N O P Q R S T U V W X Y Z 0-9

Housesitter Guitar Tabs – Jawbreaker

CD, Sheet music, Poster

Do you like Housesitter? Share with your friends now
Tabs
I'm Pretty tired of nobody tabbing
out any jawbreaker songs,
so i figure i should do it, heres one of my
favorites, housesitter.

Key: ~ = Sustaian

Housesitter by jawbreaker


Intro

E----------------------------------------------|
B----------------------------------------------|
G-4-------------------------4------------------|
D-4-2-4-5-------------------4-2-4-5--5-5-5---5-|
A-2-2-4-5-------------------2-2-4-5--5-5-5---5-|
E---0-2-3-3-3-3-5-5-7-7-------0-2-3--3-3-3---3-|


E----------------------------------------------------|
B----------------------------------------------------|
G-4-------------------------4------------------------|
D-4-2-4-5-------------------4-2-4-5------------------|
A-2-2-4-5-------------------2-2-4-5------------------|
E---0-2-3-3-3-3-5-5-7-7-------0-2-3--3-3-3-5-5--5-3--|

Verse 1

Not giving the exact numer of strums
here, just listen to the song

E-------------------------------------|
B-------------------------------------|
G-4-----------------------------------|
D-4-2-4-5-----------------------------|
A-2-2-4-5-----------------------------|
E---0-2-3-----------------------------|
(Palm Muted)

E--------------------------------------------------|
B--------------------------------------------------|
G-4-------------------------4----------------------|
D-4-2-4-5-------------------4-2-4-5----------------|
A-2-2-4-5-------------------2-2-4-5----------------|
E---0-2-3-3-3-3-5-5-7-7-------0-2-3-3-3-3-5-5--5-3-|


E-------------------------------------|
B-------------------------------------|
G-4-----------------------------------|
D-4-2-4-5-----------------------------|
A-2-2-4-5-----------------------------|
E---0-2-3-----------------------------|
(Palm Muted)


E----------------------------------------------------|
B----------------------------------------------------|
G-4-------------------------4------------------------|
D-4-2-4-5-------------------4-2-4-5------------------|
A-2-2-4-5-------------------2-2-4-5------------------|
E---0-2-3-3-3-3-5-5-7-7-------0-2-3--3-3-3-5-5--5-3--|

Break

E----------------------------------------------------|
B----------------------------------------------------|
G-4~-------------------------------------------------|
D-4~--2~--4~--5~--7~--9~--7~--5~---------------------|
A-2~--2~--4~--5~--7~--9~--7~--5~---------------------|
E-----0~--2~--3~--5~--7~--5~--3~---------------------|


E--------------------------------------------------|
B--------------------------------------------------|
G-4-------------------------4----------------------|
D-4-2-4-5-------------------4-2-4-5----------------|
A-2-2-4-5-------------------2-2-4-5----------------|
E---0-2-3-3-3-3-5-5-7-7-------0-2-3-3-3-3-5-5--5-3-|

Verse 2

This palm muting part goes on for a while
but its the same as the last verse, just longer.

E-------------------------------------|
B-------------------------------------|
G-4-----------------------------------|
D-4-2-4-5-----------------------------|
A-2-2-4-5-----------------------------|
E---0-2-3-----------------------------|
(Palm Muted)


E--------------------------------------------------|
B--------------------------------------------------|
G-4-------------------------4----------------------|
D-4-2-4-5-------------------4-2-4-5----------------|
A-2-2-4-5-------------------2-2-4-5----------------|
E---0-2-3-3-3-3-5-5-7-7-------0-2-3-3-3-3-5-5--5-3-|


E-------------------------------------|
B-------------------------------------|
G-4-----------------------------------|
D-4-2-4-5-----------------------------|
A-2-2-4-5-----------------------------|
E---0-2-3-----------------------------|
(Palm Muted)


Bridge


E----------------------------------------------------------|
B----------------------------------------------------------|
G-4-4-4----------------------------------------------------|
D-4-4-4--2-2-2--4-4-4--5-5-5----5-5------------------------|
A-2-2-2--2-2-2--4-4-4--5-5-5----5-5------------------------|
E--------0-0-0--2-2-2--3-3-3----3-3------------------------|
(P  a  l  m   M  u  t  e  d)


E----------------------------------------------------------|
B----------------------------------------------------------|
G-4-4-4----------------------------------------------------|
D-4-4-4--2-2-2--4-4-4--5-5-5----5-5------------------------|
A-2-2-2--2-2-2--4-4-4--5-5-5----5-5------------------------|
E--------0-0-0--2-2-2--3-3-3----3-3------------------------|
(P  a  l  m   M  u  t  e  d)


E---------------------------------------------|
B---------------------------------------------|
G-4----------4---5---7-------4---5---7--------|
D-4-2-4-5----4-2-5-2-7-2-----4-2-5-2-7-2------|
A-2-2-4-5----2-2-3-2-5-2-----2-2-3-2-5-2------|
E---0-2-3------0---0---0-------0---0---0------|
(Palm Muted)


E-------------------------------------|
B-------------------------------------|
G-4-----------------------------------|
D-4-2-4-5-----------------------------|
A-2-2-4-5-----------------------------|
E---0-2-3-----------------------------|
(Palm Muted)


E--------------------------------------------------|
B--------------------------------------------------|
G-4-4-4--------------------------------------------|
D-4-4-4--2-2-2--4-4-4--5-5-5----5-5----------------|
A-2-2-2--2-2-2--4-4-4--5-5-5----5-5----------------|
E--------0-0-0--2-2-2--3-3-3----3-3----------------|
(P  a  l  m   M  u  t  e  d)


E---------------------------------------------------------------|
B---------------------------------------------------------------|
G-4----------4---5---7-----4---5---7-----4---5---7--------------|
D-4-2-4-5----4-2-5-2-7-2---4-2-5-2-7-2---4-2-5-2-7-2------------|
A-2-2-4-5----2-2-3-2-5-2---2-2-3-2-5-2---2-2-3-2-5-2------------|
E---0-2-3------0---0---0-----0---0---0-----0---0---0------------|
(Palm Muted)

Final Verse

E-------------------------------------|
B-------------------------------------|
G-4-----------------------------------|
D-4-2-4-5-----------------------------|
A-2-2-4-5-----------------------------|
E---0-2-3-----------------------------|
(Palm Muted)

Outro

This is the rythm for this part, but not how many times to repeat
E--------------------|
B--------------------|
G-5-5--5--5-5--5-5-5-|
D-5-5--5--5-5--5-5-5-|
A-3-3--3--3-3--3-3-3-|
E--------------------|


E--------------------------------------------------|
B--------------------------------------------------|
G-4-------------------------4----------------------|
D-4-2-4-5-------------------4-2-4-5----------------|
A-2-2-4-5-------------------2-2-4-5----------------|
E---0-2-3-3-3-3-5-5-7-7-------0-2-3-3-3-3-5-5--5-3-|


E----------------------------------------------------|
B----------------------------------------------------|
G-4~-------------------------------------------------|
D-4~--2~--4~--5~--7~--9~--7~--5~---------------------|
A-2~--2~--4~--5~--7~--9~--7~--5~---------------------|
E-----0~--2~--3~--5~--7~--5~--3~---------------------|





Comments


Popular Jawbreaker tabs & chords
Do You Still Hate Me? Bass Tabs
Ache Chords
Indictment Chords
Accident Prone 1 Tabs
Oyster Tabs
Tour Song Tabs
Basilica Ukulele
Gemini Ukulele
Jinx Removing Ukulele
Million Ukulele


Song lyrics



↑ Back to top | Tablatures and chords are parodies/interpretations of the original songs. You may use it for private study, scholarship, research or language learning purposes only
© 2014 AZChords.com Contact us | Privacy policy | DMCA | Add/correct tabs | Request tabs | Top 50 tabs