>
 >
Do You Still Hate Me?

Do You Still Hate Me? Guitar Tabs

Jawbreaker - Do You Still Hate Me? chords, tabs, tablatures, lyrics

Guitar lessons | Add/correct | Request | Top 50 tabs Artists:  A B C D E F G H I J K L M N O P Q R S T U V W X Y Z 0-9

Do You Still Hate Me? Guitar Tabs – Jawbreaker

CD, Sheet music, Poster

Do you like Do You Still Hate Me?? Share with your friends now
Bass TabsTabs
Jawbreaker
24 Hour Revenge Therapy

Standard Tuning

Intro
  F#5   G#5   E5               F#5   G#5   E5
e-0-0-0-0-0-0--0-0-0-0-0-0--0--0-0-0-0-0-0-0-0----0-----0--|
B-0-0-0-0-0-0--0-0-0-0-0-0-0---0-0-0-0-0-0-0-----0--0----0-|
G-4/6/8/9\8\6/11\9\8/9\8\4---4-4/6/8/9\8\6/4---4-6----8----|
D----------------------------------------------------------|
A----------------------------------------------------------|
E----------------------------------------------------------|

Verse Chords
  F#5 G#5  E5
e------------|
B------------|
G------------|
D--4---6---2-|
A--4---6---2-|
E--2---4---0-|

Verse
F#5           G#5
Been hearing about you
E5
All about your disapproval
F#5       G#5        E5
Still I remember the way I used to move you
F#5           G#5
I wrote you a letter
E5
I heard it just upset you
F#5           G#5
Why don't you tell me?
E5
How can I do this better?

Chorus Chords
   B   F#  A   E
e--0---0---0---0--|
B--0---0---0---0--|
G--4---x---x---1--|
D--4---4---7---2--|
A--2---4---7---2--|
E------2---5---0--|

Chorus
B
Are you out there?
F#
Do you hear me?
A
Can I call you?
E
Do you still hate me?
B
Are we talking?
F#
Are we fighting?
A
Is it over?
E
Are we writing?

Verse (same as first)
We're getting older
But we're acting younger
We should be smarter
It seems we're getting dumber
I have a picture
of you and me in Brooklyn
On a porch, it was raining
Hey, I remember that day

Chorus (same as first)

Bridge Chords
   G#   E    B
e--0----0----0--|
B--0----0----0--|
G--x----x----4--|
D--6----2----4--|
A--6----2----2--|
E--4----0-------|

G#   E    B
       G#   E    B
Hey, I miss you
       G#   E    B
Hey, I miss you
       G#   E    B
Hey, I miss you

Repeat Intro

Repeat Chorus

Repeat Bridge

Outro
  G#5                 A                   B
e---12--12--12--12--12--12--12--12--12--12--12--12--12--12-|
B-16--16--16--16--16--16--16--16--16--16--16--16--16--16---|
G----------------------------------------------------------|
D----------------------------------------------------------|
A----------------------------------------------------------|
E----------------------------------------------------------|

End on B.





Comments


Popular Jawbreaker tabs & chords
Jinx Removing Chords
Busy Tabs
Chemistry Tabs
Chesterfield Kind Tabs
Chesterfield Kind 1 Tabs
Save Your Generation Tabs
Save Your Generation 1 Tabs
Ache Ukulele
Basilica Ukulele
Million Ukulele


Song lyrics



↑ Back to top | Tablatures and chords are parodies/interpretations of the original songs. You may use it for private study, scholarship, research or language learning purposes only
© 2014 AZChords.com Contact us | Privacy policy | DMCA | Add/correct tabs | Request tabs | Top 50 tabs