» » »

Chemistry Tabs (ver.1)

Artists:  A B C D E F G H I J K L M N O P Q R S T U V W X Y Z # 

Chemistry Tabs (ver.1)

Jawbreaker
Rating:
5/5 (1 vote)

Hard to play? Try these video lessons and learn fast.
                Band: Jawbreaker
Tuning: Standard

Strum pattern is easy to figure out and I'm lazy, so I left it out at most parts. 
harmonics on the verse are on the second fret. Strum messily on the verses too, ie: lots of 
and muted notes on the higher strings.

Intro
e||-------------------||
B||-------------------||
G||-------------------||x4
D||-4-4-4---x-4--4--4-||
A||-4-4-4---x-4--4--4-||
E||-2-0-0h2-x-2b-2--0-||

Verse
e||---------x----------x-------------x------||    ||---------||
B||---------x----------x-------------x------||    ||---------||
G||---------x----------x-------------x------||x2  ||---------||
D||-4-4-4---x--4-4-4---x--5--4-4-4---x-4--4-||    ||-4--4--4-||
A||-4-4-4---x--4-4-4---x--5--4-4-4---x-4--4-||    ||-4--4--4-||
E||-2-0-0h2-x--2-0-0h2-x--3--2-0-0h2-x-2b-0-||    ||-2--0--2-||

Prechorus
e||------------||
B||------------||
G||------------||x2
D||-7--9--5--9-||
A||-7--9--5--9-||
E||-5--7--3--7-||

e||------||
B||------||
G||------||
D||-7--7-||
A||-7--5-||
E||-5--5-||

Chorus
e||-5----------||
B||-5----------||
G||-7----------||x2
D||-7--7--9--5-||
A||-5--7--9--5-||
E||-5--5--7--3-||

Bridge (Seems kinda pointless to tab out, but whatever. I think there's some feedback on 
guitar at the same time. Either that, or this is an incomplete tab. Let's hope the former)
e||---||
B||---||
G||---||
D||-4-||
A||-4-||
E||-2-||

Outro
e||-5-||
B||-5-||
G||-7-||
D||-7-||
A||-5-||
E||-5-||

Thanks!

Key:
h - Hammer on
b - Bend
x - natural harmonic/dead note
            
Hard to play? Try these video lessons and learn fast. | Correct




comments powered by Disqus
↑ Back to top | Tablatures and chords are parodies/interpretations of the original songs. You may use it for private study, scholarship, research or language learning purposes only