» » »

Jawbreaker, Boxcar Bass tabs (ver.1)

Artists:  A B C D E F G H I J K L M N O P Q R S T U V W X Y Z # 

Boxcar Bass tabs (ver.1)

Jawbreaker Tabs
 Rating:
4/5 (4 votes)
Boxcar lessons Tabs too difficult? Try these video lessons and learn fast
                Intro
(Listen to the song for struming pattern)


G---------------------------------------------------------------------------------------------|
D---------------------------------------------------------------------------------------------|
A----3---3---3--555---------------------------------------------------------------------------|
E--3---3---3----------------------------------------------------------------------------------|

PreChorus


G---------------------------------------------------------------------------------------------|
D---------------------------------------------------------------------------------------------|
A---------------------------------------------------------------------------------------------|
E--3333----5555----8-8-8-8-8-8-8-8----3333----5555----0000------------------------------------|

(i was passing out while you were passing out)


G---------------------------------------------------------------------------------------------|
D---------------------------------------------------------------------------------------------|
A-----------3~--------------------------------------------------------------------------------|
E---5~---------------3333----5555----7777----8-8-8-8------------------------------------------|
(1 2 3 4 whos punk? whats the score???)


G-----------------------------------------------------------------------------------------------|
D-----------------------------------------------------------------------------------------------|
A-------------5~--------------------------------------------------------------------------------|
E---0~------------------------------------------------------------------------------------------|
thats the whole song
            
Submit corrections

comments powered by Disqus
↑ Back to top | Jawbreaker Bass for Boxcar. Lyrics for acoustic guitar and electric guitar. Tablatures and chords are parodies/interpretations of the original songs. You may use it for private study, scholarship, research or language learning purposes only