» » »

Jawbreaker, Basillica Tabs (ver.1)

Artists:  A B C D E F G H I J K L M N O P Q R S T U V W X Y Z # 

Basillica Tabs (ver.1)

Jawbreaker Tabs
 Rating:
4/5 (4 votes)
Basillica lessons Tabs too difficult? Try these video lessons and learn fast
                Jawbreaker
Dear You


This is one of my favorite Jawbreaker songs..yet there are no tabs for it and I've never 
a cover of it.
Like most songs on Dear You..there are multiple guitar tracks and so much distortion its 
hard to tell whats going on
but this is 95% accurate I'd say

Dropped D tuning

Verse

e|-----------------------|
B|-----------------------|
G|-6~---------------7~---|
D|-6~----7~----2~---7~---|
A|-4~----7~----2~---5~---|
D|-------7~----2~--------|


Pre Chorus

e|--------------------------|
B|--------------------------|
G|--4-4-4-4--6-6-6-6-6---2~-|
D|--4-4-4-4--6-6-6-6-6---2~-|
A|--2-2-2-2--4-4-4-4-4---0~-|
D|--------------------------|


Chorus

e|-----------------------------------------------------------|
B|-----------------------------------------------------------|
G|--------9---------------11--------6-6-6-6-6--4-4-4-4-4-----|
D|-----7-----7---------9------9-----6-6-6-6-6--4-4-4-4-4-----|
A|--9--------------11---------------4-4-4-4-4--2-2-2-2-2-----|
D|-----------------------------------------------------------|

e|-------------------------------|----------------------------|
B|-------------------------------|----------------------------|
G|--------9---------------11-----|----------------------------|
D|-----7-----7---------9------9--|-----4--4/6---6---4---4-----|
A|--9--------------11------------|--5-----------------5-------|
D|-------------------------------|----------------------------|

e|-----------------------------------------------------------|
B|-----------------------------------------------------------|
G|--------9---------------11--------6-6-6-6-6--4-4-4-4-4-----|
D|-----7-----7---------9------9-----6-6-6-6-6--4-4-4-4-4-----|
A|--9--------------11---------------4-4-4-4-4--2-2-2-2-2-----|
D|-----------------------------------------------------------|

e|--------------------------------------------------------------------------------------|
B|--------------------------------------------------------------------------------------|
G|--------9---------------11-------------------2-2-2/4-4-4-4----------2-6-6-6-6-4-4-4---|
D|-----7-----7---------9------9--------0-0-000-0-0-0-0-0-0-0--0-0-000-0-0-0-0-0-0-0-0---|
A|--9--------------11------------------0-0-000-0-0-0-0-0-0-0--0-0-000-0-0-0-0-0-0-0-0---|
D|-------------------------------------0-0-000-0-0-0-0-0-0-0--0-0-000-0-0-0-0-0-0-0-0---|

e|--------------------------------------------------|
B|--------------------------------------------------|
G|---------2-2-2/4-4-4-4----------2/6-6-6-6-4-4-4---|
D|-0-0-000-0-0-0-0-0-0-0--0-0-000-0-0-0-0-0-0-0-0---|
A|-0-0-000-0-0-0-0-0-0-0--0-0-000-0-0-0-0-0-0-0-0---|
D|-0-0-000-0-0-0-0-0-0-0--0-0-000-0-0-0-0-0-0-0-0---|


Bridge..this is where it gets muddy...close enough though

e|--------------------------------------------------0-------|
B|------------------------------------------------0---0-----|
G|-10~------10-10-10-10-10-10----6~-------6-----6-----------|
D|-x-~------x--x--x--x--x--x-----6~-----6----6--------------|
A|-8-~------8--8--8--8--8--8-----4~---4---------------------|
D|----------------------------------------------------------|

Play that part until it switches key

The bass line sounds like this

G|-7-8-8-8-8-8-7-7-7-7-7-7-8-10-10-10-10-10-10-7-7-7-7-7-7--|
D|-0-0-0-0-0-0-0-0-0-0-0-0-0--0--0--0--0--0--0-0-0-0-0-0-0--|
A|----------------------------------------------------------|
D|----------------------------------------------------------|

So I play something like....


e|--------------------------------------------------------------|
B|--------------------------------------------------------------|
G|-7-8-8-8-8-8-7-7-7-7-7-7-8-10-10-10-10-10-10-7-7-7-7-7-7------|
D|-0-0-0-0-0-0-0-0-0-0-0-0-0--0--0--0--0--0--0-0-0-0-0-0-0------|
A|-0-0-0-0-0-0-0-0-0-0-0-0-0--0--0--0--0--0--0-0-0-0-0-0-0------|
D|-0-0-0-0-0-0-0-0-0-0-0-0-0--0--0--0--0--0--0-0-0-0-0-0-0------|

If you figure out exactly whats being played, I'd really like to know
            
Submit corrections

comments powered by Disqus
↑ Back to top | Jawbreaker Tabs for Basillica. Lyrics for acoustic guitar and electric guitar. Tablatures and chords are parodies/interpretations of the original songs. You may use it for private study, scholarship, research or language learning purposes only