>
 >
Save My Heart

Save My Heart Guitar Tabs

Jason Reeves - Save My Heart chords, tabs, tablatures, lyrics

Guitar lessons | Add/correct | Request | Top 50 tabs Artists:  A B C D E F G H I J K L M N O P Q R S T U V W X Y Z 0-9

Save My Heart Guitar Tabs – Jason Reeves

CD, Sheet music, Poster

Do you like Save My Heart? Share with your friends now
ChordsTabsUkulele
-------------------------------------------------------------------------------
-------------------------------------------------------------------------------

Tuning: Standard *CAPO 4TH FRET*

This should be 100% right 


Intro (with capo):

e|-3-3-3-2-2-2-2-2--x4---------------------------------------|
B|-3-3-3-3-3-3-3-3-------------------------------------------|
G|-----------------------------------------------------------|
D|-----------------------------------------------------------|
A|-----------------------------------------------------------|
E|-----------------------------------------------------------|

Intro part 2 (including capo):

  Em                             C
e|-0---3-3-2-2-0-0-------------------3-3-2-2--------------------|
B|-0---------------3-3-5-5-------------------5-5-3-3-5-5--------|
G|-0-----------------------4-4---0-----------------------4-2----|
D|-2-----------------------------2------------------------------|
A|-2-----------------------------3------------------------------|
E|-0------------------------------------------------------------|

   G                               D
e|-----3-3-2-2---------------------2-------------------|
B|-------------5-5-3-3-5-5---------3-------------------|
G|-0-----------------------4-2-----2-------------------|
D|-0-------------------------------0--4/5--------------|
A|-2---------------------------------------------------|
E|-3---------------------------------------------------|

Verse(with capo)  (lyrics may be wrong at some parts)

Em
i want what i can have
C
i want to make you mine
G                     D
i dont care what it takes

Em                  C
im fearless with my heart
                G
ill take it any place
                   D
i dont care if it breaks ‎
Em                  C
i want to tell you things
                 G
id never tell myself
                     D
these secrets all i kill

Chorus

G                           
call me crazy, maybe im insanly
D
id never mind but if it ever face me
Em
if i have to, im not afraid to
C
save my heart for you

G
im a rebel even if its trouble
D
i will pull you out from the rubble
Em
if i have to, im not afraid to
C
save my heart for you

Em                C
tell me im wrong, turn around and run
G               D
still im gonna save my heart for you

2nd verse

Repeat Em, C, G, D

i know you want me too
even if its not now
im gonna wait it out

but dont you dare forget
that moment that we had
i know we both felt too

i want to tell you things
id never tell myself
these secrets all i kill

G,D,Em,C
call me crazy, maybe im insanly
id never mind but if it ever face me
if i have to, im not afraid to
save my heart for you

G,D,Em,C
im a rebel even if its trouble
i will pull you out from the rebel
if i have to, im not afraid to
save my heart for you

Em               C
tell me im wrong, turn around and run
G              D
still im gonna save my heart for you

Em,C,G,D
i want to tell you things
id never tell myself
these secrets all i kill

E,C,G.D
the first time that you smiled
so shining back at me
i couldnt help myself

G,D,Em,C
call me crazy, maybe im insanly
id never mind but if it ever face me
if i have to, im not afraid to
save my heart for you

G,D,Em,C
im a rebel even if its trouble
i will pull you out from the rebel
if i have to, im not afraid to
save my heart for you

Em,C,G,D
tell me im wrong, turn around and run
still gonna save my heart for you

Em,C,G,D
i want what i can have
i want to make you mine
dont matter what it takes





Comments


Popular Jason Reeves tabs & chords
Entwined Chords
Helium Hearts Chords
More In Love With You Chords
Reaching 3 Chords
Save My Heart Chords
Skydive Chords
Someone Somewhere Chords
Terrified Chords
Youre My Best Friend Chords
Photographs And Memories 1 Tabs


Song lyrics



↑ Back to top | Tablatures and chords are parodies/interpretations of the original songs. You may use it for private study, scholarship, research or language learning purposes only
© 2014 AZChords.com Contact us | Privacy policy | DMCA | Add/correct tabs | Request tabs | Top 50 tabs