» » »

Jason Reeves, Photographs And Memories Tabs (ver.1)

Artists:  A B C D E F G H I J K L M N O P Q R S T U V W X Y Z # 

Photographs And Memories Tabs (ver.1)

Jason Reeves Tabs
Rating:
5/5 (5 votes)
Photographs And Memories lessons Tabs too difficult? Try these video lessons and learn fast
                (Intro)
----------------------------------------------------------------------------
               Photographs and Memories - Jason Reeves
----------------------------------------------------------------------------

Tuning: Standard (EADGBe)
| /  slide up
| h  hammer-on
| p  pull-off

NOTE: This tab is NOT 100% accurate but the best I've seen anyone play it. I'm starting 
think nobody knows it but Jason and his sister.

Intro:
e|----10---------------10-------------8p7-----------7-----------5-------|
B|-------10---10----------10---10---------8---8-------7---7-------5---5-|
G|-----------------9----------------------------------------------------|
D|----------------------------------------------------------------------|
A|-/10-----10----9---9-------9----7-7-------7---5-5-----5---3-3-----3---|
E|----------------------------------------------------------------------|

e|-----3---------------0h2-------------2h3-----|
B|-------3---3-----3-------3-------3-------3---|
G|---------------2---2-------2---2---2-------2-|
D|-------------0---------------0---------------| Repeat from intro.
A|-2-2-----2-----------------------------------|
E|---------------------------------------------|

============================================================================
            

comments powered by Disqus
↑ Back to top | Jason Reeves Tabs for Photographs And Memories. Lyrics for acoustic guitar and electric guitar. Tablatures and chords are parodies/interpretations of the original songs. You may use it for private study, scholarship, research or language learning purposes only