» » »

Photographs And Memories Tabs (ver.3)

Artists:  A B C D E F G H I J K L M N O P Q R S T U V W X Y Z # 

Photographs And Memories Tabs (ver.3)

Jason Reeves
Rating:
0/5 (0 votes)

Hard to play? Try these video lessons and learn fast.
                First Tab. I wanted to publish a more accurate and complete tab. Comment, rate, 
and notify me for corrections please :) enjoy!!

|----------10------|-------10------|--------8p7------|------7~------|-------5~-------|
|-----8-------10---|---8------10---|------8------8---|----7-----7---|-----5-----5----|
|------------------|---------------|----0----------0-|--0---------0-|---0---------0--|
|------------------|---------------|-----------------|--------------|----------------|
|--10---10-------10|-9---9-------9-|7----------------|5-------------|-3------------3-|
|------------------|---------------|-----------------|--------------|----------------|

-------3~------|
-----3-----3---|
---0---------0-|
---------------|
-2-------------|
---------------|


|------------0h2--------------2h3------|
|------3---3------3-------3--------3---|
|--------2----------2---2---2--------2-|
|----0----------------0----------------|
|--------------------------------------|
|--------------------------------------|

Bridge:
Em            C
i need you back
C             G
i need you back
G             D
i need you here
Em              C
i need your smile
C              G
i need your eyes
G             D
i need you dear

just pluck in the same general pattern and play the open chords (1st through 3rd 
frets) it should be something like this:

|--------0-----|--------0-----|--------2h3------|--------0h2------|
|----------0---|----------1---|-------------3---|------3------3---|
|------------0-|----0-------0-|----0----------0-|----2----------2-|
|----2---------|------2-------|-----------------|--0--------------|
|------2-------|--3-----------|------2----------|-----------------|
|--0-----------|--------------|--3--------------|-----------------|
            
Hard to play? Try these video lessons and learn fast. | Correct




comments powered by Disqus
↑ Back to top | Tablatures and chords are parodies/interpretations of the original songs. You may use it for private study, scholarship, research or language learning purposes only