» » »

Jason Reeves, Photographs And Memories Tabs (ver.2)

Artists:  A B C D E F G H I J K L M N O P Q R S T U V W X Y Z # 

Photographs And Memories Tabs (ver.2)

Jason Reeves Tabs
 Rating:
4/5 (5 votes)
Photographs And Memories lessons Tabs too difficult? Try these video lessons and learn fast
1
                ----------------------------------------------------------------------------
----------------------------------------------------------------------------

Tuning: Standard (EADGBe)
| /  slide up
| h  hammer-on
| p  pull-off

This song is pretty simple once you get the hang of it.
It pretty much repeats this whole segment through out the whole song
with a few minor adjustments in different sections. This is my very
first tab, so please be gentle with comments, although CONSTRUCTIVE
criticism helps ^__^. *note* I have not yet figure out the bridge section
of the song, so when I do, I'll add it on. If anyone knows it, lemme know
so I can get the FULL song..Thanks, enjoy, and God Bless :D.

Layout:
x1 Intro
x4 Verse 1
x2 Chorus
x4 Verse 2
x2 Chorus
   Bridge (i don't know this part yet)
x?? dunno...how many time else its needed for chorus-end


Main component:
e|----------10-------------------10---------------8p7---------|
B|------------10--------------------10----------------8-------|
G|----------------0----0-----9---------9---9---0---------0-0--|
D|------------------------------------------------------------|
A|-/10-10-10--------10-----9---9---------9----7-7---------7---|
E|------------------------------------------------------------|

e|-----7------------5------------3----------------0h2--------|
B|-----7-7------------5------------3------------3-----3------|
G|--0------0-0---0------0-0---0------0-0----0h2---------2p0--|
D|----------------------------------------0------------------|
A|-5-5------5---3-3------3---2-2------2----------------------|
E|-----------------------------------------------------------|

e|----------------|
B|-------3--------|
G|-----0---0------|
D|-0h2------------|
A|----------------|
E|----------------|

the first change is the 3rd time, during the verse, for this segment's ending is just a 
different.

e|------------0h2-3p2--------------------|
B|----------3---------3-----------3------|
G|------0h2-------------2p0-----0---0----|
D|----0---------------------0h2----------|
A|---------------------------------------|
E|---------------------------------------|

the second change is during the chorus, instead of

e|-------8p7--------|
B|-----------8------|
G|----0--------0-0--|
D|------------------|
A|---7-7--------7---|
E|------------------|

it is hammered instead of pull off.

e|-------7h8--------|
B|-----------8------|
G|----0--------0-0--|
D|------------------|
A|---7-7--------7---|
E|------------------|


Enjoy this magnificent song :D
            
Submit corrections

comments powered by Disqus
↑ Back to top | Jason Reeves Tabs for Photographs And Memories. Lyrics for acoustic guitar and electric guitar. 1 Tablatures and chords are parodies/interpretations of the original songs. You may use it for private study, scholarship, research or language learning purposes only