» » »

La Freeway Tabs (ver.1)

Artists:  A B C D E F G H I J K L M N O P Q R S T U V W X Y Z # 

La Freeway Tabs (ver.1)

Jason Boland
Rating:
0/5 (0 votes)

Hard to play? Try these video lessons and learn fast.
                This is a great Guy Clark song, and Jason does an awesome job covering it. It's 
not perfect, but I think it's pretty close. It's a lot easier than the Guy 
Clark version.




E||-----5-3--3-3-2--2--0--|-----10---10-10--10-9-9--7------|
B||-------3---------------|---8----8-----------------------|
G||---0-------------------|-0------------------------------|
D||-0---------------------|--------------------------------|
A||-----------------------|--------------------------------
E||-----------------------|--------------------------------|


                                                
------5-3--3-3-2--2--0-----|--------2/5-3-2-0-||
--------3------------------|------3-----------||
----0----------------------|----2-------------||
--0------------------------|--0---------------||
---------------------------|------------------||
---------------------------|------------------||
            
Hard to play? Try these video lessons and learn fast. | Correct




comments powered by Disqus
↑ Back to top | Tablatures and chords are parodies/interpretations of the original songs. You may use it for private study, scholarship, research or language learning purposes only