>
 >
Images

Images Guitar Tabs

Jason Becker - Images chords, tabs, tablatures, lyrics

Guitar lessons | Add/correct | Request | Top 50 tabs Artists:  A B C D E F G H I J K L M N O P Q R S T U V W X Y Z 0-9

Images Guitar Tabs – Jason Becker

CD, Sheet music, Poster

Do you like Images? Share with your friends now
Tabs
This song is beautiful !!
Hope you like it !
(/Distortion...)

----10----9----7-------10-9--7-----7-9-10---9--7--------10-9-7------7-9------
--7--------8------7--------8----7-8----------8-----7--------8---7-8----------
-7---------------------------------------------------------------------------

-15---14-12--12-------15-14-12--12---------------15--15-14-12----------------
-----------15--14-------------15---14----12-14-15------------15-12--14-12--12
									1/2
-----------------------------------------22-17-19--17------------------------
-14-12-------------------------------------------19--17-19--17-----19--------
------12-11-9--12~~----(right channel)--------------------19--16-19--19-20b~~
-------------11--------------------------------------------------------------

-------------------22-21-19--------------------------------------------------
---------------------------20-19---------------------------------------------
--(right channel)---------------18-18-16-------------------------------------
----------------------------------------17-16--------------------------------
---------------------------------------------17-16-14------------------------
-----------------------------------------------------15-14~~-----------------

this is the right channel

--(left channel)----------------------11---9------------(left channel)-------
--------------------9--------12-11-9--------11-12---9------------------------
---------------------10-9-10--------9----------------------------------------

--11-9------------------------------------(left channel)---------------------
------12---------------12-11-9-----------------------------------------------
------------11--12---------------9--10---------------------------------------
       1/2
-10--10b---10----------------17-14--14----------------------19-17------------
-------------12---10---12---------17--15-------------------------19--17-19---
-------------------------------------------(left channel)----------19-----19-


--19--------------------------------14---14----------------------------------
----19-17-16---(left channel)---------12---12-11-----------------------------
------------------------------------------------12-11------------------------


 F#m
---------7~------------------------------------------------------------------
---/9b--------9---9b---rb---7^9^7\6~-----------------------------------------
---------------------------------------7--7/9--11-9--7^9^7~------7-9-7-------
-------------------------------------------------------------7^9-------------

-6^7^6---------------------------7-9-7--6^7^6-----------4--2^4^2--4----------
------7--7b--rb--7b~---------7-9-------------7--7b~-------------4------------
-------------------------7^9-------------------------------------------5-2-4-

----------------------------------5~----5--7--9--/10-9-7--7^9^7--------------
-------------5b~---(8b)--rb--^5--------------------------------10~-----------
-------------------------------6---------------------------------------------
-4--2------------------------------------------------------------------------
-----5-2-4-------------------------------------------------------------------

----------5^7^5--4^5^4---------4-5-7^5^4-5-7-5-4^5--/12b~--------------------
--5--7-9--------------7-5-7~----------------------5--------------------------
-----------------------------------------------------------4--2^4^2-4--------
     gradual bend
-4b--------------------------------------------------------------------------
 the second guitar plays the same scale starting from minor 3rd below     
------------------------------------------------------------/14--12~---------
-/10-10~---------10--12--10--12~------12--10^12^10\-9-10-12------------------
                                                                         1/2
--14-12-14---17-17-14^17^14-----------12-14-12-------------------14-17-16b---
---------------------------14^19~-------------12-14-12-----------------------
------------------------------------------------------14-14b~----------------
                       1/2  
-14------------------------------------14-17-14-17^14^17^14-17-14------------
---17-15~---15-17-15-17b--rb15--15b~-----------------------------17-14-17~---
------------------------------16---------------------------------------------

--14-12-14--17-17-14^17^14\12-14~------14---17--16----17^16------------------
---------------------------------------------------17------19~---------------


-----5--------7--------9---------10-----------12------------14------------16-
--2^3-3^2-/5^7-7^5-/7^9-9^7-/9^10--10^9-/10^12--12^10-/12^14--14^12-/14^15---

-------------19--------------------------------------------------------------
-15^14-/17^19--19^17^19--17b~--------17b---rb--17b--rb-------------------14--
--------------------------------------------------------16b~---14~--16~------

---------------------------------------------------14^17---------------------
----------------------10~---12-10--7^10^7--------------------14^17-----------
--16--14~-------\9^11---------------------9---14^16--------------------------
--------------------------------------------------------14^16----------------

------------------------------------------------------17b--rb--17b---rb------
-14^16------------14^16----14--16--14--13^14^13------------------------------
-------------14^16-----------------------------16-14-------------------------
------14^17------------------------------------------------------------------
    1 1/2                  w/wah wah          1/2
-19b-------17~--------------17b~-------14--16b-----rb--14--------------------
----------------------------------------------------------14--16b~-----------

-------------------------------------------10~---12-10-9^10^9----------------
--14---(14b)---rb--14^13-14~----------9^11--------------------11-------------
---------------------------------9^11----------------------------------------

--17^14-17^14--------------------14^12---------------------------------------
-------------17^14---17-17b~----------14-13-14-13^14^13-12--13-11-13--13b--11
------------------16b--------------------------------------------------------

-11^8--/11~------------------------------------------------------------------
 E5                                                 A#5
--3~-5--3-------------------------------------------3--4^3^4^3---------------
-----------4~---4\2--------------------------------------------5~--3~--3-5---
---------------------5--5-7/9--10-9^10^9-\7~---------------------------------
                               dive w/bar
-3-4---4--^5^4^5^4-----------------------------3--5--3-----------------------
-------------------6~------^0---------------------------4~----2---2--4~--5-4^

                                                          dive w/bar
----------------3~--4--3^4^3-------------3-4--5^4^5^4------------------------
-5^4^5^4\2~------------------5~----3---5--------------6~---6--^0-------------
                                                      harmonics w/bar
---------------------------------------------------------4-------------------
--4~-------------------------------------------------------------------------
--------------------------------------------/---x--\-------------------------

--------------14-17-17-14-----------------------------12-16----14-9----------
------------15-----------15-------------------------12-------------10--------
----------14---------------14---------------------13-----------------11\6----
--------16-------------------16-----------------14-----------------------7---
---12-17-----------------------17-12-------11-14--------------------------9--
-14---------------------------------14---12----------------------------------

-----------5-9---7-3-----------------5-9-5-9-5----------5-9--7-4-------------
----------7---------3---------------7---------7--------5--------5------------
---------6-----------4-------------6-----------6------6----------4-----------
--------7-------------5-----------7-------------7----7------------6----------
---4-4-9---------------5-2-----4-9------------------7--------------7---------
------------------------------5----------------------------------------------

-----------------------------------------5---7-4---------------------10------
----------------------------------------5-------5------------------10--------
-----------6-7-6-6---------------------6---------4---------------11----------
------6-7-9-----9-9-7-6-7-6-----------7-----------6------------12------------
-9-8-9---------------------9-7-----4-7-------------7-------9-12--------------
---------------------------------------------------------10------------------

-17-14------14-17-14-------------------------------14-17-14------------------
------15--15--------15---------------------------15--------15----------------
--------14------------14-\11----------------11/14------------14-\11----------
----------------------------12------------12-----------------------12--------
------------------------------12--------12---------------------------12------
--------------------------------14-10-14-------------------------------14----

--------------12-16----14-9-------------------5-9---7-3-----------------5-9-5
------------12-------------10----------------7---------3---------------7-----
----------13-----------------11\6-----------6-----------4-----------2/6------
--------14-----------------------7---------7-------------5---------4---------
---11-14--------------------------9---4-4-9---------------5-2-----4----------
-12------------------------------------5-----------------------2-5-----------

-9-5------------5-9---7-4----------------------------------------------------
----7----------5---------5---------------------------------------------------
-----6--------6-----------4-----------------6-7-6-6--------------------------
------7------7-------------6-----------6-7-9-----9-9-7-6-7-6-----------------
-------9----7---------------7-----9-8-9---------------------9-7--------------

-------5-9--7-4----------------------------17-22-17--------------------------
------5--------5-------------------------19--------19------------------------
-----6----------4---------------11-14-/19------------19------------19-23-19--
----7------------6------------12-----------------------19--------19--------19
---7--------------7---------12---------------------------21-17-21------------
-----------------------10-14-------------------------------------------------

---------6----7-6------------------------------------------------------------
-21-17-----------9~----------------------------------------------------------

 ok this is not guitar but it's still cool to learn

 8x                                4x                      4x
--------7-11-7------------------12-16-12------------------6-9-6--------------
-------9------9---------------14--------14---------------7-----7-------------
------9--------9------------14------------14-----------7--------7------------
--7-10----------10-----12-15----------------15-12---5-9----------9-5---------
         4x                       4x                 4x
-------7-11-7----------------------------------------6-9-6-------------------
------9------9------------------9-12-9-------------7------7------------------
-----9--------9---------------9-------9----------7---------7-----------------
-7-10-----------10-7------7-10---------10-----5-9-----------9-5--------------
             4x                        2x                    2x
-----------11-14-11------------------------------------------6-9-6-----------
---------12--------12-----------------9-12-9----------------7-----7----------
-------12------------12--------------9------9-------------7--------7---------
--10-14----------------14-10-----7-10--------10-7-----5-9-----------9-5------
          8x
--------7-11-7---------------------------------------------------------------
-------9------9--------------------------------------------------------------
------9--------9-------------------------------------------------------------
--7-10----------10-7---------------------------------------------------------

on top of the arpeggios Jason plays this:
listen to Jason's use of the vibrato bar
                                                             1/2
---/14~-----/14---12--/14--/15~------15^14^12-----14^15---/19b---17~---------

--19^17^19--/22-22-19^17--22b--19~-----14^17---------------------------------
---------------------------------------------17~--------------------12-15-17b
----------------------------------------------------16--19~-----/14b---------

--rb17-15-17~-----/19--17--19---20b--20b-19-17-17-/19~------19--17-19-----19-
                    t                    1/2
--------------------------------------------21~------------------------------
-17--------/17b---(18)---rb-17~---------------------------------------------
---19~-------------------------------/16b------------------------------------





Comments


Popular Jason Becker tabs & chords
Black Cat Tabs
Black Stallion Jam Tabs
Eleven Blue Egyptians Tabs
Floating World Tabs
Higher Tabs
Mabels Fatal Fable Tabs
Ninja Tabs
Perpetual Burn 2 Tabs
River Of Longing Intro Tabs
Sweet Baboon Tabs


Song lyrics



↑ Back to top | Tablatures and chords are parodies/interpretations of the original songs. You may use it for private study, scholarship, research or language learning purposes only
© 2014 AZChords.com Contact us | Privacy policy | DMCA | Add/correct tabs | Request tabs | Top 50 tabs