» » »

Jason Aldean, She's Country Bass tabs (ver.1)

Artists:  A B C D E F G H I J K L M N O P Q R S T U V W X Y Z # 

She's Country Bass tabs (ver.1)

Jason Aldean Tabs
Rating:
0/5 (0 votes)
Hard to play? Try these video lessons and learn fast.
                
Tuning: Drop-D


INTRO:
G|---------------|------------|---------------|----------------|
D|---------------|------------|---------------|----------------|
A|---------------|------------|---------------|-------3--------|
D|-0---1-2---2-4-|---4-2--2-1-|-0---1-2---2-4-|-0-2-4---0-4-2--|


VERSE:
G|---------------|------------|---------------|----------------|
D|---------------|------------|---------------|----------------|
A|---------------|------------|---------------|-------3--------|
D|-0---1-2---2-4-|---4-2--2-1-|-0---1-2---2-4-|-0-2-4---0-4-2--|

G|---------------|------------|---------------------------------|
D|---------------|------------|---------------------------------|
A|---------------|------------|----------------------------7\0--|
D|-0---1-2---2-4-|---4-2--2-1-|-0-0-0-0--2-2-2-2--4-4-4-4-------|


CHORUS: (Listen for triplet rhythm)
G|-------------|-------------|X4|
D|-------------|-------------|X4|
A|--4-4--4-222-|-------------|X4|
D|-------------|--4-4--4-222-|X4|


SOLO: (No Bass)


OUTRO:
G|---------------|------------|---------------|----------------|X2|
D|---------------|------------|---------------|----------------|X2|
A|---------------|------------|---------------|-------3--------|X2|
D|-0---1-2---2-4-|---4-2--2-1-|-0---1-2---2-4-|-0-2-4---0-4-2--|X2|


| /  slide up
| \  slide down
| h  hammer-on
| p  pull-off
| ~  vibrato
| +  harmonic
| x  Mute note
            

comments powered by Disqus
↑ Back to top | Jason Aldean Bass for She's Country. Lyrics for acoustic guitar and electric guitar. Tablatures and chords are parodies/interpretations of the original songs. You may use it for private study, scholarship, research or language learning purposes only