» » »

Big Green Tractor Bass tabs (ver.1)

Artists:  A B C D E F G H I J K L M N O P Q R S T U V W X Y Z # 

Big Green Tractor Bass tabs (ver.1)

Jason Aldean
Rating:
0/5 (0 votes)

Hard to play? Try these video lessons and learn fast.
                ----------------------------------------------------------------------------
----------------------------------------------------------------------------

Tuning: Standard

Start with a slide down to an open E

INTRO:
G|----------------|----------------|----------------|----------------|
D|----------------|----------------|----------------|----------------|
A|--------------4-|2-------202-0---|----------------|----------------|
E|0-------0-4-5---|--------------4-|2-------202-24--|5------/17------|
B|----------------|----------------|----------------|----------------|

VERSE: (listen for the triplet feel)
G|--------------------|----------------|----------------|------------------------|
D|-----------------14-|13--------------|11--------------|------------------------|
A|------------12-14---|----------------|----------------|12----------h14h14h14h14|
E|0-------------------|----------------|----------------|------------------------|
B|--------------------|----------------|----------------|------------------------|

G|----------------|----------------|----------------|----------------|
D|----------------|----------------|----------2-----|----------------|
A|7-------7---7-9-|6-------6---6-7-|4-------4---4-2-|0-0-0-0-202-0---|
E|----------7-----|----------7-----|----------------|-------------42-|
B|----------------|----------------|----------------|----------------|

CHORUS:
G|----------------|----------------|----------------|----------------|
D|2---------------|--------------2-|4-4---2-442-----|----------------|
A|--------------4-|2-------202-4---|----4-------4-2-|0-0-0-0-202-0---|
E|--0-0---0-4-5---|----------------|----------------|-------------42-|
B|----------------|----------------|----------------|----------------|

G|----------------|----------------|----------------|----------------|
D|2---------------|----------------|----------------|----------------|
A|--------------4-|2-------202-0---|----------------|----------------|
E|--0-0---0-4-5---|--------------4-|2-2-2---2-2-4---|5---------------|
B|----------------|----------------|----------------|----------------|



INTRO:
G|----------------|----------------|
D|----------------|----------------|
A|--------------4-|2------/14------|
E|0-------0-4-5---|----------------|
B|----------------|----------------|



VERSE:
G|----------------|----------------|----------------|----------------|
D|----------------|----------------|----------2-----|----------------|
A|7-------7-7-7---|6-------6-6-6---|4-4-4---4---4-2-|0-0-0-0-202-0---|
E|-------7------7-|-------7------7-|----------------|-------------42-|
B|----------------|----------------|----------------|----------------|

CHORUS:
G|----------------|----------------|----------------|----------------|
D|2---------------|--------------2-|4-4---2-442-----|----------------|
A|--------------4-|2-------202-4---|----4-------4-2-|0-0-0-0-202-0---|
E|--0-0---0-4-5---|----------------|----------------|-------------42-|
B|----------------|----------------|----------------|----------------|

G|----------------|----------------|----------------|----------------|
D|2---------------|----------------|----------------|----------------|
A|--------------4-|2-------202-0---|----------------|0-0-0-0-202-2-2-|
E|--0-0---0-4-5---|--------------4-|2-2-2---202-4---|----------------|
B|----------------|----------------|----------------|----------------|

BRIDGE:
G|----------------|----------------|----------------|----------------|
D|----------------|--------------2-|----------------|----------------|
A|4-4-2-4---------|0-0-0-0-002-4---|4-4-2-4---------|202-2-2-2-2-2-2-|
E|------------2-4-|----------------|------------2-4-|----------------|
B|--------202-----|----------------|--------202-----|----------------|

GUITAR SOLO:
G|----------------|----------------|----------------|----------------|
D|----------------|----------------|----------------|----------------|
A|7-7-7---707-7---|6-6-6---606-6---|4-4-------4-4-2-|0-0-0-0-202-0---|
E|-------7------7-|-------7------7-|------2-4-------|-------------42-|
B|----------------|----------------|----2-----------|----------------|

CHORUS:
G|----------------|----------------|----------------|----------------|----------------|
D|2---------------|----------------|----------------|----------------|----------------|
A|--------------4-|2-------202-0---|----------------|----------------|1212121212121212|
E|--0-0---0-4-5---|--------------4-|2-2-2---2-2-4---|5/--------------|----------------|
B|----------------|----------------|----------------|----------------|----------------|





CHORUS:
G|----------------|----------------|----------------|----------------|
D|2---------------|----------------|----------------|----------------|
A|--------------4-|2-------202-0---|----------------|0-0-0-0-202-0---|
E|--0-0---0-4-5---|--------------4-|2-2-2---202-2-4-|-------------4--|
B|----------------|----------------|----------------|--------------2-|

G|----------------|----------------|----------------|----------------|
D|2---------------|----------------|----------------|----------------|
A|--------------4-|2-------202-0---|----------------|----------------|
E|--0-0---0-4-5---|--------------4-|2-2-2---202-24--|5---------------|
B|----------------|----------------|----------------|----------------|

/  slide up
\  slide down
h  hammer-on
p  pull-off
~  vibrato
+  harmonic
x  Mute note
            
Hard to play? Try these video lessons and learn fast. | Correct




comments powered by Disqus
↑ Back to top | Tablatures and chords are parodies/interpretations of the original songs. You may use it for private study, scholarship, research or language learning purposes only