» » »

Put It On Me Tabs (ver.1)

Artists:  A B C D E F G H I J K L M N O P Q R S T U V W X Y Z # 

Put It On Me Tabs (ver.1)

Ja Rule
Rating:
0/5 (0 votes)

Hard to play? Try these video lessons and learn fast.
                Guitar:
e-9--6--4-6--9--4-6-18--9--16--4---2--9--9-11-11-9-6-
B-9--7--4-7-----4-7-16--7--14--4---2--9--9-11-11-9-7-
G----------------------------------------------------
D----------------------------------------------------
A----------------------------------------------------
E----------------------------------------------------
                        

Bass:
G----------------------------------------------------
D-1--------------------------------------------------
A---------4---------------------------4--------------
E---------------------------3--3---3-----------------
 

This tab is 100% correct. If you have any request, rap, hip-hop, or 
anything, send email.
            
Hard to play? Try these video lessons and learn fast. | Correct




comments powered by Disqus
↑ Back to top | Tablatures and chords are parodies/interpretations of the original songs. You may use it for private study, scholarship, research or language learning purposes only