» » »

Liquid Bass tabs (ver.1)

Artists:  A B C D E F G H I J K L M N O P Q R S T U V W X Y Z # 

Liquid Bass tabs (ver.1)

Jars Of Clay
Rating:
0/5 (0 votes)

Hard to play? Try these video lessons and learn fast.
                (C) 1995 Bentwood Music

[This was created with TabIt version 1.2]
   Intro
G :----------------|---------------- 2|----------------|---------------- 2|
D :1---------------|1---------------*||----1-1-4-4-----|----1-1-4-4-----*||
A :--------2-------|--------2-------*||2-2---------2---|2-2---------2---*||
E :----------------|---------------- ||----------------|---------------- ||
   Verse
G :----------------|----------------|----------------|---------------- 2|
D :----1-1-4-4-----|----1-1-4-4-----|----1-1-4-4-----|----1-1---------*||
A :2-2---------2---|2-2---------2---|2-2---------2---|2-2---------4-4-*||
E :----------------|----------------|----------------|--------4-4----- ||
   Chorus
G :----------------|---------------- 2|
D :1---1-----------|4---4-----------*||
A :--------2---2---|--------4---4---*||
E :----------------|---------------- ||
            
Hard to play? Try these video lessons and learn fast. | Correct




comments powered by Disqus
↑ Back to top | Tablatures and chords are parodies/interpretations of the original songs. You may use it for private study, scholarship, research or language learning purposes only