>
 >
Dead Man (Carry Me) 1

Dead Man (Carry Me) 1 Guitar Tabs

Jars Of Clay - Dead Man (Carry Me) 1 chords, tabs, tablatures, lyrics

Guitar lessons | Add/correct | Request | Top 50 tabs Artists:  A B C D E F G H I J K L M N O P Q R S T U V W X Y Z 0-9

Dead Man (Carry Me) 1 Guitar Tabs – Jars Of Clay

CD, Sheet music, Poster

Do you like Dead Man (Carry Me) 1? Share with your friends now
Bass TabsChordsChords v2Chords v3TabsTabs v2
Band: Jars of Clay

his is a correction i made mistake and i knew it when i submitted it    this one is right

Intro/Verse:

-9-9-9-9--12-12-12-12--4444--9-9--9-9--12-12-12-12--4444--------|
-9-9-9-9--12-12-12-12--4444--9-9--9-9--12-12-12-12--4444--------|
----------------------------------------------------------------|
----------------------------------------------------------------|
----------------------------------------------------------------|
----------------------------------------------------------------|

Chorus 1:
-----------------------------------------------------------------|
-----------------------------------------------------------------|
-------------------------------------------------4-4-4-4-4-4-4-4-|
-7-7-7-7-7-7-7-7-7-7-7-7-7-7-7-7-2-2-2-2-2-2-2-2-4-4-4-4-4-4-4-4-|
-7-7-7-7-7-7-7-7-7-7-7-7-7-7-7-7-2-2-2-2-2-2-2-2-2-2-2-2-2-2-2-2-|
-4-5-5-5-4-5-5-5-4-5-5-5-4-5-5-4-0-0-0-0-0-0-0-0-----------------|

-----------------------------------------------------------------|
-6-6-6-6-6-6-6-6-------------------------------------------------|
-6-6-6-6-6-6-6-6-7-7-7-7-7-7-7-7-2-2-2-2-2-2-2-2-4-4-4-4-4-4-4-4-|
-4-4-4-4-4-4-4-4-7-7-7-7-7-7-7-7-2-2-2-2-2-2-2-2-4-4-4-4-4-4-4-4-|
-----------------4-5-5-5-4-5-5-5-0-0-0-0-0-0-0-0-2-2-2-2-2-2-2-2-|

-----------------------|
-----------------------|
9999-8888-6666-4444-7--|
9999-8888-6666-4444-7--|
7777-6666-4444-2222-5--|

Bridge:
-------------------------------------------------------------------------|
-------------------------------------------------------------------------|
------6-----6-----6-----6-----4-----4-----4-----4-----6-----6-----6----6-|
-7-6-7-7-6-7-7-6-7-7-6-7-5-4-5-5-4-5-5-4-5-5-4-5-7-6-7-7-6-7-7-6-7-7-6-7-|
-------------------------------------------------------------------------|
-------------------------------------------------------------------------|

-----------------|
-----------------|
7777777777777777-
5555555555555555-

Chorus 2:

-----------------------------------------------------------------|
-----------------------------------------------------------------|
-----------------------------------------------------------------|
-7-7-7-7-7-7-7-7-7-7-7-7-7-7-7-7-2-2-2-2-2-2-2-2-2-2-2-2-2-2-2-2-|
-7-7-7-7-7-7-7-7-7-7-7-7-7-7-7-7-2-2-2-2-2-2-2-2-2-2-2-2-2-2-2-2-|
-4-5-5-5-4-5-5-5-4-5-5-5-4-5-5-5-0-0-0-0-0-0-0-0-0-0-0-0-0-0-0-0-|

----------------------------------|
----------------------------------|
-4-4-4-4-4-4-4-4--6-6-6-6-6-6-6-6-|
-4-4-4-4-4-4-4-4--6-6-6-6-6-6-6-6-|
-2-2-2-2-2-2-2-2--2-2-2-2-2-2-2-2-|
----------------------------------|

--------------------------------------------------------------------------|
--------------------------------------------------------------------------|
-7-7-7-7-7-7-7-7-7-7-7-7-7-7-7-7-2-2-2-2-2-2-2-2-2-2-2-2-2-2-2-2----------|
-7-7-7-7-7-7-7-7-7-7-7-7-7-7-7-7-2-2-2-2-2-2-2-2-2-2-2-2-2-2-2-2----------|
-4-5-5-5-4-5-5-5-4-5-5-5-4-5-5-5-0-0-0-0-0-0-0-0-0-0-0-0-0-0-0-0----------|
--------------------------------------------------------------------------|
--------------------------------------------------------------------------|

----------------------------------|
----------------------------------|
-4-4-4-4-4-4-4-4--6-6-6-6-6-6-6-6-|
-4-4-4-4-4-4-4-4--6-6-6-6-6-6-6-6-|
-2-2-2-2-2-2-2-2--2-2-2-2-2-2-2-2-|
----------------------------------|

-------------------------------------------------------------------------|
-------------------------------------------------------------------------|
---------------------------------4-4-4-4-4-4-4-4--6-6-6-6-6-6-6-6--------|
7-7-7-7-7-7-7-7--2-2-2-2-2-2-2-2-4-4-4-4-4-4-4-4--6-6-6-6-6-6-6-6--------|
7-7-7-7-7-7-7-7--2-2-2-2-2-2-2-2-2-2-2-2-2-2-2-2--6-6-6-6-6-6-6-6--------|
5-5-5-5-5-5-5-5--0-0-0-0-0-0-0-0-----------------------------------------|

-----------------------------------------------|
-----------------------------------------------|
-9-9-9-9-8-8-8-8-6-6-6-6-4-4-4-4---------------|
-9-9-9-9-8-8-8-8-6-6-6-6-4-4-4-4--7------------|
-7-7-7-7-6-6-6-6-4-4-4-4-2-2-2-2--7------------|
----------------------------------4---------/5-|


Song order:

Intro/Verse:6x's
Chorus1:1x's
Intro/Verse:5x's
Chorus1:1x's
Bridge:1x's
CHorus 2:1x's





Comments


Popular Jars Of Clay tabs & chords
Five Candles Bass Tabs
Let Us Love And Sing And Wonder Chords
Liquid Chords
Oh My God 1 Chords
Famous Last Words Tabs
He Tabs
Liquid Mandolin Tabs
Redemption Intro Tabs
Weighed Down Tabs
Faith Enough Ukulele


Song lyrics



↑ Back to top | Tablatures and chords are parodies/interpretations of the original songs. You may use it for private study, scholarship, research or language learning purposes only
© 2014 AZChords.com Contact us | Privacy policy | DMCA | Add/correct tabs | Request tabs | Top 50 tabs