» » »

Darkness On The Edge Of Gastown Tabs (ver.1)

Artists:  A B C D E F G H I J K L M N O P Q R S T U V W X Y Z # 

Darkness On The Edge Of Gastown Tabs (ver.1)

Japandroids
Rating:
0/5 (0 votes)

Hard to play? Try these video lessons and learn fast.
                -------------------------------------------------------------------------------
-------------------------------------------------------------------------------
Effects: Guitar plugged into two amps, one clean with chorus, the other distorted.
Tuning: Drop D

Intro:

e|13-------x-----13-13-13-13-13-x-------|
B|15-------x-----15-15-15-15-15-x-------|
G|14-------x-----14-14-14-14-14-x-------| 
D|0 -------x-----0 -0 -0 -0 -0 -x-------|
A|0 -------x-----0 -0 -0 -0 -0 -x-------|
D|0 -------x-----0 -0 -0 -0 -0 -x-------|

e|13-------x-----13--13--13--13--13--13--13--|
B|15-------x-----15--15--15--15--15--15--15--|
G|14-------x-----14--14--14--14--14--14--14--| (play both parts x4)
D|0 -------x-----0 --0 --0 --0 --0 --0 --0 --|
A|0 -------x-----0 --0 --0 --0 --0 --0 --0 --|
D|0 -------x-----0 --0 --0 --0 --0 --0 --0 --|

Verse: Have the D, A, and D strings ring throughout
(Tell her she wears too much neon)
e|--0-----0-----0-|
B|----6-----6-----|
G|7-----7-----7---|(x8)
D|----------------|
A|----------------|
D|----------------|

Repeat Intro and Verse 2 more times

Chorus
(Tell her I'm still alive...)
e|1-------13-----------------------------------------------|
B|3-------15-------13-------11-------8------3------6-------|
G|2-(x32)-14-(x32)-12-(x16)-10-(x16)-7-(x8)-2-(x8)-5-(x16)-| (x4)
D|0-------0 -------10-------8 -------5------0------3-------|
A|0-------0 -------10-------8 -------5------0------3-------|
D|0-------0 -------10-------8 -------5------0------3-------|

then play the intro again without mutes and add a little style that im unsure how to tab.

End with the same chord played 17 times letting the last ring out.
            
Hard to play? Try these video lessons and learn fast. | Correct




comments powered by Disqus
↑ Back to top | Tablatures and chords are parodies/interpretations of the original songs. You may use it for private study, scholarship, research or language learning purposes only