» » »

Jansch Bert, Walk Quietly By Tabs (ver.1)

Artists:  A B C D E F G H I J K L M N O P Q R S T U V W X Y Z # 

Walk Quietly By Tabs (ver.1)

Jansch Bert Tabs
 Rating:
4/5 (4 votes)
Walk Quietly By lessons Tabs too difficult? Try these video lessons and learn fast
                Tuning: EADGBE
Capo: 2nd fret

This was originally on "When The Circus Comes To Town" but I haven't got it 
yet so I tabbed the live version. When I get that album I'll tab this again 
if it's different enough. It's a really beautiful song and the simple guitar
part really comes alive with the vocals. Strangely enough, I find this one
tricky to sing and play at the same time; can't think why. Anyway, I've 
break which is just the chorus really. Everything you need is here - it's
in 2/4; use the asterisks as a guide. Amazing song! :o)

Rhythm: 2/4

   Intro:
Beat:*      *          *      *          *      *        *      *
E||-----------------|-----------------|--0--0---------|-----------------|
B||-----------0-----|-----------0-----|-------0-------|-----------0-----|
G||-------2-------2-|-------2-------2-|-----------2---|-------2-------2-|
D||-----2-------2---|-----2-------2---|---------------|-----2-------2---|
A||--0--------------|--0--------------|--0------------|--0--------------|
E||---------3-------|---------3-------|---------3-----|---------3-------|


   *      *          *      *          *      *          *      *    
E-----------------|--0--0-----------|-----------------|-----------------|
B-----------0-----|-------0---------|-----------0-----|-----------0-----|
G-------2-------2-|-----------2---2-|-------2-------2-|-------2-------2-|
D-----2-------2---|-------------2---|-----2-------2---|-----2-------2---|
A--0--------------|--0--------------|--0--------------|--0--------------|
E---------3-------|---------3-------|---------3-------|---------3-------|

Verse:
   *     *          *      *          *     *          *      *     
E----------------|-----------------|----------------|-----------------|
B----------0-----|-----------0-----|----------------|-----------0-----|
G--------------2-|-------2-------2-|----------2---2-|-------2-------2-|
D-----2------2---|-----2-------2---|-----2------2---|-----2-------2---|
A--0-------------|--0--------------|--0-------------|--0--------------|
E--------3-------|---------3-------|--------3-------|---------3-------|


   *     *          *      *          *     *          *      * 
E----------------|-----------------|----------------|-----------------|
B----------------|-----------0-----|----------------|-----------0-----|
G----------2---2-|-------2-------2-|----------2---2-|-------2-------0-|
D-----2------2---|-----2-------2---|-----2------2---|-----2-------2---|
A--0-------------|--0--------------|--0-------------|--0--------------|
E--------3-------|---------3-------|--------3-------|---------3-------|

Chorus:
   *      *          *      *          *       *          *      *  
E-----------5-----|-----------------|------------------|-----------------|
B---------5-----7-|-/10-------8-----|--5-----5---------|-----------0---0-|
G-------5---------|-------------7---|----0-------0---0-|-------7---------|
D-----7-------7---|------9--------9-|------7-------0---|-----5-------5---|
A--0------0-------|--7------7-------|------------------|-----------------|
E-----------------|-----------------|--8-------8-------|--7------7-------|


   *      *          *      *         *     *          *      * 
E-----------------|--0-------------|----------------|-----------------|
B-----------0-----|-------1--------|--0-------------|-----------0-----|
G-------2-------2-|-----------2----|----------0---0-|-------2-------2-|
D-----2-------2---|-----2-------2--|-----2------2---|-----2-------2---|
A--0--------------|----------------|----------------|--0--------------|
E---------3-------|--1------1------|--0-----3-------|---------3-------|

                                     Middle section:
   *      *          *      *          *      *         *      * 
E-----------------|--0--0-----------|----------------|----------------|
B-----------0-----|-------0---------|-----------1-3--|--5--------5----|
G-------2-------2-|-----------2---2-|-------2--------|-------0--------|
D-----2-------2---|-------------2---|-----2----------|-----5-------5--|
A--0--------------|--0--------------|--0------0---2--|--3------3------|
E---------3-------|---------3-------|----------------|----------------|


   *       *         *     *         *       *         *     *
E--3-5p3-0-----0--|---------------|----0------------|----------------|
B--------------1--|--3--3---------|--3-----1--------|--0-------------|
G------------2----|----------0----|--------2---2----|----------0---0-|
D--------------2--|-----0------0--|------0-------3--|-----2------2---|
A--2-------0------|---------------|-----------------|----------------|
E-----------------|--3-----3------|--3-------1------|--0-----3-------|


   *      *          *      *          *      *          *      * 
E-----------------|-----------------|-----------------|-----------------|
B-----------0-----|-----------0-----|-----------0-----|-----------0-----|
G-------2-------2-|-------2-------2-|-------2-------2-|-------2-------2-|
D-----2-------2---|-----2-------2---|-----2-------2---|-----2-------2---|
A--0--------------|--0--------------|--0--------------|--0--------------|
E---------3-------|---------3-------|---------3-------|---------3-------|


   *      *         *      *         *       *         *     *   
E----------------|----------------|--3-5p3-0-----0--|--------------|
B-----------1-3--|--5--------5----|--------------1--|--3--3-----3--|
G-------2--------|-------0--------|------------2----|--------------|
D-----2----------|-----5-------5--|--------------2--|-----0-----0--|
A--0------0---2--|--3------3------|--2-------0------|--------------|
E----------------|----------------|-----------------|--3-----3-----|


   *       *         *     *          *      *          *      * 
E----0------------|----------------|-----------------|----------------|
B--3-----1--------|--0-------------|-----------0-----|-----------0----|
G------2-----2----|----------0---0-|-------2-------2-|-------2--------|
D--------------3--|-----2------2---|-----2-------2---|-----2-------2--|
A-----------------|----------------|--0--------------|--0-------------|
E--3-------1------|--0-----3-------|---------3-------|---------3------|


   *       *          *     *          *      *          *      *      
E------------------|----------------|-----------------|-----------------||
B--1-----0---------|--0-------------|-----------0-----|-----------0-----||
G----2---2---2-----|----------0---0-|-------2-------2-|-------2-------0-||
D------2-----------|-----2------2---|-----2-------2---|-----2-------2---||
A--------------0h2-|----------------|--0--------------|--0--------------||
E--1-------1-------|--0-----3-------|---------3-------|---------3-------||

TAB guide: h = hammer on, p = pull off
           / = slide into note from below
            
Submit corrections

comments powered by Disqus
↑ Back to top | Jansch Bert Tabs for Walk Quietly By. Lyrics for acoustic guitar and electric guitar. Tablatures and chords are parodies/interpretations of the original songs. You may use it for private study, scholarship, research or language learning purposes only