» » »

Soho Tabs (ver.1)

Artists:  A B C D E F G H I J K L M N O P Q R S T U V W X Y Z # 

Soho Tabs (ver.1)

Jansch Bert
Rating:
0/5 (0 votes)
Tabs too difficult? Try these video lessons and learn fast.
                Tuning: DADGBE
Capo: None; guitar tuned down semitone on recording

This is really easy to play and a classic drop-D picking pattern from Bert - I
didn't tab John Renbourn's lead part although it's really easy to pick out 
the main theme and the rest is improvised. This sounds just as good just with just
Bert's part and vocals, though. I've tabbed it from the start up until the second
verse - the rest is the same pattern and you should be able to take it from there.
Enjoy! :o)

Intro:
Beat:*     *     *     *       *     *     *     *
E||-------------------------|-------------------------|
B||--3--------3-------------|--3--------3-------------|
G||-----2-----------2-------|-----2-----------2-------|
D||--------0-----------0----|--------0-----------0----|
A||-------------------------|-------------------------|
D||--0-----------0----------|--0-----------0----------|


   *     *     *     *       *     *     *     *       *     *     *     *
E-----------------0-------|--1--------1-------------|--0--------0-------------|
B--3--------3-------------|-------------------------|-----1-----------1-------|
G-----2-------------------|-----2-----------2-------|-------------------------|
D--------0-----------0----|--------0-----------0----|--------2-----------2----|
A-------------------------|-------------------------|--0-----------0----------|
D--0-----------0----------|--0-----------0----------|-------------------------|



   *     *     *     *       *     *     *     *       *     *     *     *    
E-------------------------|-------------------------|-------------------------|
B--3--------3-------------|--1--------1-------------|-----------0-------------|
G-----2-----------2-------|-----0-----------0-------|-----0-----------0-------|
D--------0-----------0----|--------3-----------3----|--------2-----------2----|
A-------------------------|-------------------------|-------------------------|
D--0-----------0----------|--3-----------3----------|--2-----------2----------|

 
                                                     Verse:
   *     *     *     *       *     *     *     *       *     *     *     * 
E-------------------------|-------------------------|-----------------0-------|
B-----------3-------------|--3--------3-------------|--3--------3-------------|
G-----2-----------2-------|-----2-----------2-------|-----2-------------------|
D--------0-----------0----|--------0-----------0----|--------0-----------0----|
A-------------------------|-------------------------|-------------------------|
D--0-----------0----------|--0-----------0----------|--0-----------0----------|



   *     *     *     *       *     *     *     *       *     *     *     *
E--1--------1-------------|--0--------0-------------|-------------------------|
B-------------------------|-----1-----------1-------|--3--------3-------------|
G-----2-----------2-------|-------------------------|-----2-----------2-------|
D--------0-----------0----|--------2-----------2----|--------0-----------0----|
A-------------------------|--0-----------0----------|-------------------------|
D--0-----------0----------|-------------------------|--0-----------0----------|



   *     *     *     *       *     *     *     *       *     *     *     *
E-------------------------|-------------------------|-----------1-----0-------|
B--1--------1-------------|--3--------3-------------|--3----------------------|
G-----0-----------0-------|-----2-----------2-------|-----2-------------------|
D-------------------------|-------------------------|--------------------0----|
A--------3-----------3----|--------0-----------0----|--------0----------------|
D--0-----------0----------|--0-----------0----------|--0-----------0----------|



   *     *     *     *       *     *     *     *       *     *     *     * 
E-----------------0-------|--1--------1-------------|--0--------0-------------|
B--3--------3-------------|-------------------------|-----1-----------1-------|
G-----2-------------------|-----2-----------2-------|-------------------------|
D--------------------0----|--------0-----------0----|--------2-----------2----|
A--------0----------------|-------------------------|--0-----------0----------|
D--0-----------0----------|--0-----------0----------|-------------------------|



   *     *     *     *       *     *     *     *       *     *     *     * 
E-------------------------|-------------------------|-------------------------|
B--3--------3-------------|--1--------1-------------|--3--------3-------------|
G-----2-----------2-------|-----0-----------0-------|-----2-----------2-------|
D--------0-----------0----|-------------------------|-------------------------|
A-------------------------|--------3-----------3----|--------0-----------0----|
D--0-----------0----------|--0-----------0----------|--0-----------0----------|



   *     *     *     *       *     *     *     *       *     *     *     * 
E-----------1-----0-------|-----------------5-------|--3--------3-------------|
B--3----------------------|--3--------3-------------|-----6-----------6-------|
G-----2-------------------|-----2--------------0----|--------0----------------|
D--------------------0----|--------0----------------|--------------------0----|
A--------0----------------|-------------------------|-------------------------|
D--0-----------0----------|--0-----------0----------|--5-----------5----------|



   *     *     *     *       *     *     *     *       *     *     *     * 
E-------------------------|-------------------------|-------------------------|
B--3--------3-------------|--3--------3-------------|--1--------1-------------|
G-----2-----------2-------|-----2-----------2-------|-----0-----------0-------|
D--------0-----------0----|--------0-----------0----|--------3-----------3----|
A-------------------------|-------------------------|-------------------------|
D--0-----------0----------|--0-----------0----------|--3-----------3----------|



   *     *     *     *       *     *     *     *       *     *     *     *
E-------------------------|-----------------0-------|--1--------1-------------|
B-----------0-------------|-----------3-------------|-------------------------|
G-----0-----------0-------|-----2-------------------|-----2-----------2-------|
D--------2-----------2----|--------0-----------0----|--------0-----------0----|
A-------------------------|-------------------------|-------------------------|
D--2-----------2----------|--0-----------0----------|--0-----------0----------|



   *     *     *     *       *     *     *     *       *     *     *     * 
E--0--------0-------------|-------------------------|-------------------------|
B-----1-----------1-------|--3--------3-------------|-----------1-------------|
G-------------------------|-----2-----------2-------|-----0-----------0-------|
D--------2-----------2----|--------0-----------0----|--------3-----------3----|
A--0-----------0----------|-------------------------|-------------------------|
D-------------------------|--0-----------0----------|--3-----------3----------|


   *     *     *     * 
E-------------------------||
B-----------3-------------||
G-----2-----------2-------||
D--------0-----------0----||
A-------------------------||
D--0-----------0----------||
            
Tabs too difficult? Try these video lessons and learn fast.


comments powered by Disqus
↑ Back to top | Tablatures and chords are parodies/interpretations of the original songs. You may use it for private study, scholarship, research or language learning purposes only