» » »

Ramblings Gonna Be The Death Of Me Tabs (ver.1)

Artists:  A B C D E F G H I J K L M N O P Q R S T U V W X Y Z # 

Ramblings Gonna Be The Death Of Me Tabs (ver.1)

Jansch Bert
Rating:
0/5 (0 votes)

Hard to play? Try these video lessons and learn fast.
                Tuning: DADGBE (drop D)
Capo: 4th Fret

This is from Berts self-titled first album of 1965. It features his classic 
trademark picking pattern and is an ideal tune for beginner pickers to learn 
as well as being a great song. I've tabbed out the intro and the verse; 
that's all there is really but as usual Bert shows slight variation from 
verse to verse.

Rhythm: 4/4


Beat:*    *     *     *       *    *     *     * 
E||----------5-----0-------|------------------------|
B||--5b7-----------5-------|--3-------------3-------|
G||------------------------|----------2-------------|
D||-------0-----------0----|-------0-----------0----|
A||------------------------|------------------------|
D||--0----------0----------|--0----------0----------|


   *    *    *     *       *    *     *     *
E-----------------------|------------------------|
B-------2---------------|----------------0-------|
G---------------0-------|----------0-------------|
D-------2----------2----|-------0-----------0----|
A--0---------0----------|------------------------|
D-----------------------|-/5----------5----------|


   *    *     *     *       *     *     *     * 
E------------------------|--0h-2-------------------|
B----------------3-------|-----------------0-------|
G----------2-------------|-----------2-------------|
D-------0-----------0----|--------0-----------0----|
A------------------------|-------------------------|
D--0----------0----------|--0-----------0----------|


   *    *     *      *       *    *     *     *
E----------5-----2p0------|------------------------|
B--5b7-----------5--------|--3-------------3-------|
G-------------------------|----------2-------------|
D-------0------------0----|-------0-----------0----|
A-------------------------|------------------------|
D--0----------0-----------|--0----------0----------|

                                Strum:
   *    *    *     *       *    *    *    * 
E-----------------------|-------0--------------|
B-------2---------------|-------1------0--0----|
G---------------0-------|-------0------0--0----|
D-------2----------2----|--------------0--0----|
A--0---------0----------|--3--------------2----|
D-----------------------|----------------------|


   *    *     *     *       *     *    *     * 
E----------------0-------|--0h-2------------------|
B----------3-------------|----------------3-------|
G-------2-----------2----|-----------2------------|
D------------------------|--------0----------0----|
A------------------------|------------------------|
D--0----------0----------|--0---------------------|

                         Verse:
   *    *     *     *       *    *     *     * 
E------------------------|----------5-----0-------|
B--3-------------0-------|--5b7-----------5-------|
G----------2-------------|------------------------|
D-------0-----------0----|-------0-----------0----|
A------------------------|------------------------|
D--0----------0----------|--0----------0----------|


   *    *     *     *       *    *    *     *  
E------------------------|-----------------------|
B--3-------------3-------|-------2---------------|
G----------2-------------|---------------0-------|
D-------0-----------0----|-------2----------2----|
A------------------------|--0---------0----------|
D--0----------0----------|-----------------------|


   *    *     *     *       *    *     *     *   
E------------------------|------------------------|
B----------------0-------|----------------3-------|
G----------0-------------|----------2-------------|
D-------0-----------0----|-------0-----------0----|
A------------------------|------------------------|
D-/5----------5----------|--0----------0----------|


   *     *     *     *       *    *     *     * 
E--0h-2-------------------|----------5-----0-------|
B-----------------0-------|--5b7-----------5-------|
G-----------2-------------|------------------------|
D--------0-----------0----|-------0-----------0----|
A-------------------------|------------------------|
D--0-----------0----------|--0----------0----------|


   *    *     *     *       *    *    *     *
E------------------------|-----------------------|
B--3-------------3-------|-------2---------------|
G----------2-------------|---------------0-------|
D-------0-----------0----|-------2----------2----|
A------------------------|--0---------0----------|
D--0----------0----------|-----------------------|

        Strum:
   *    *    *    *       *    *     *     * 
E-------0--------------|----------------0-------|
B-------1------0--0----|----------3-------------|
G-------0------0--0----|-------2-----------2----|
D--------------0--0----|------------------------|
A--3--------------2----|------------------------|
D----------------------|--0----------0----------|


   *     *     *    *       *    *     *     * 
E--0h-2------------------|----------5p-3----------|
B----------------3-------|----------------6-------|
G-----------2------------|------------------------|
D--------0----------0----|-------0-----------0----|
A------------------------|------------------------|
D--0---------------------|-/5----------5----------|


   *    *     *     *       *    *     *     * 
E----------2p-0----------|----------5p-3----------|
B--3-------------3-------|----------------6-------|
G------------------------|------------------------|
D-------0-----------0----|-------0-----------0----|
A------------------------|------------------------|
D--0----------0----------|-/5----------5----------|


   *    *     *     *       *    *    *     * 
E------------------------|-----------------------|
B--3-------------3-------|-------2---------------|
G----------2-------------|---------------0-------|
D-------0-----------0----|-------2----------2----|
A------------------------|--0---------0----------|
D--0----------0----------|-----------------------|

        Strum:
   *    *    *    *       *    *     *     * 
E-------0--------------|----------------0-------|
B-------1------0--0----|----------3-------------|
G-------0------0--0----|-------2-----------2----|
D--------------0--0----|------------------------|
A--3--------------2----|------------------------|
D----------------------|--0----------0----------|


   *     *     *     *       *    *     *     *  
E--0h-2-------------------|------------------------|------||
B-----------------3-------|--3-------------0-------|------||
G-----------2-------------|----------2-------------|------||
D--------0-----------0----|-------0-----------0----|------||
A-------------------------|------------------------|------||
D--0-----------0----------|--0----------0----------|------||

TAB guide: h = hammer on, p = pull off
           b = bend up to next note
           / = slide in from below
            
Hard to play? Try these video lessons and learn fast. | Correct




comments powered by Disqus
↑ Back to top | Tablatures and chords are parodies/interpretations of the original songs. You may use it for private study, scholarship, research or language learning purposes only