» » »

Jansch Bert, Oh How Your Love Is Strong Tabs (ver.1)

Artists:  A B C D E F G H I J K L M N O P Q R S T U V W X Y Z # 

Oh How Your Love Is Strong Tabs (ver.1)

Jansch Bert Tabs
 Rating:
4/5 (4 votes)
Oh How Your Love Is Strong lessons Tabs too difficult? Try these video lessons and learn fast
1
                Tuning: DADGBE
Capo: 4th Fret

picking pattern but sounds great. Here I've tabbed the intro and the 
verse; Bert gives it some slight variation in the other verses and 
instrumental but everything you need to know is here. Work with the 
recording to see what I mean. It's in 4/4 but there is a bar of 2/4 - the 
asterisks are a guide.

Rhythm: 4/4, 2/4


Beat:*     *      *      *         *      *      *       *        
E||-----------------------------|-------1--------1-----1---------|
B||-----1----0------------------|-----------3------3-------3-----|
G||---------------2--------2----|--4----------4------4-------4---|
D||-----2------0-------4--------|-----0------------------------0-|
A||------------------0-------0--|--------------------------------|
D||--0-----0------0------0------|--0------0------0-------0-------|


   *      *      *       *          *     *      *       *
E-------2--------2-----2---------|-----------------------------|
B-----------3------3-------3-----|-----1----0------------------|
G-----5-------5------5-------5---|---------------2--------2----|
D------------------------------0-|-----2------0-------4--------|
A--------------------------------|------------------0-------0--|
D--0------0------0-------0-------|--0-----0------0------0------|


   *      *      *       *          *     *      *       *
E-------1--------1-----1---------|------------------------------|
B-----------3------3-------3-----|-----3---------3-----3--------|
G--4----------4------4-------4---|----------2------2-------2----|
D-----0------------------------0-|-----0------0------0-------0--|
A--------------------------------|------------------------------|
D--0------0------0-------0-------|--0-----0------0-------0------|

 Verse:
   *     *      *      *         *      *      *       *
E-----------------------------|-------1--------1-----1---------|
B-----1----0------------------|-----------3------3-------3-----|
G---------------2--------2----|--4----------4------4-------4---|
D-----2------0-------4--------|-----0------------------------0-|
A------------------0-------0--|--------------------------------|
D--0-----0------0------0------|--0------0------0-------0-------|


   *      *      *       *         *     *      *      *
E-----------2----2-----2--------|-----------------------------|
B-------3----------3-------3----|-----1----0------------------|
G-----5-------5------5-------5--|---------------2--------2----|
D-------------------------------|-----2------0-------4--------|
A-------------------------------|------------------0-------0--|
D--0------0------0-------0------|--0-----0------0------0------|

 
   *      *      *       *          *      *      *       *
E-------1--------1-----1---------|-------------------------------|
B-----------3------3-------3-----|-------3--------3-----3--------|
G--4----------4------4-------4---|-----------2------2-------2----|
D-----0------------------------0-|-----0-------0------0-------0--|
A--------------------------------|-------------------------------|
D--0------0------0-------0-------|--0------0------0-------0------|


   *       *       *      *         *       *       *      *
E--------------------------------|--------------------------------|
B--------0h1-0--h3------3--------|--------0h1-0--h3------3--------|
G--2h4----------------------2----|--2h4----------------------2----|
D------0-------0------0-------0--|------0-------0------0-------0--|
A--------------------------------|--------------------------------|
D--0-------0-------0------0------|--0-------0-------0------0------|

 
   *       *          *       *      *       *            
E------------------|--2-----2--------2-----2---------|
B--------0h1-0--h3-|----3-------3------3-------3-----|
G--2h4-------------|------5-------5------5-------5---|
D------0-------0---|-------------------------------0-|
A------------------|---------------------------------|
D--0-------0-------|--0-------0------0-------0-------|


   *     *      *       *          *      *      *       *
E-----1---------1-----1---------|-------------------------------|
B-----3----3------3-------3---3-|-------3--------3-----3--------|
G------------4------4-------4---|-----------2------2-------2----|
D-----0-------------------------|-----0-------0------0-------0--|
A-------------------------------|-------------------------------|
D--0-----0------0-------0-------|--0------0------0-------0------|


   *       *      *       *  
E---------------------------------|----||
B--3-----3--------3-----3---------|----||
G----2-------2------2-------2-----|----||
D------0-------0------0-------0---|----||
A---------------------------------|----||
D--0-------0------0-------0-----0-|----||

TAB guide: h = hammer on, p = pull off
            
Submit corrections

comments powered by Disqus
↑ Back to top | Jansch Bert Tabs for Oh How Your Love Is Strong. Lyrics for acoustic guitar and electric guitar. 1 Tablatures and chords are parodies/interpretations of the original songs. You may use it for private study, scholarship, research or language learning purposes only