>
 >
I Am Lonely

I Am Lonely Guitar Tabs

Jansch Bert - I Am Lonely chords, tabs, tablatures, lyrics

Guitar lessons | Add/correct | Request | Top 50 tabs Artists:  A B C D E F G H I J K L M N O P Q R S T U V W X Y Z 0-9

I Am Lonely Guitar Tabs – Jansch Bert

CD, Sheet music, Poster

Do you like I Am Lonely? Share with your friends now
Tabs
Tuning: Standard (EADGBE)
Capo: 2nd Fret

Rhythm: 4/4

Beat:*     *     *     *       *     *     *     *
E||-------------------------|-------------------------|
B||--5--------5-------------|--8--------8-------------|
G||-----0-----------0-------|-----0-----------0-------|
D||--------5-----------5----|--------5-----------5----|
A||--3-----------3----------|-------------------------|
E||-------------------------|--7-----------7----------|


   *     *     *     *       *     *     *     *       *     *     *     *    
E-------------------------|-------------------------|-------------------------|
B--6--------6-------------|-------------------------|-----------3-------------|
G-----5-----------5-------|--5--------5-------------|--5--------------5-------|
D--------3-----------3----|-----5-----------5-------|-----5-------------------|
A--0-----------0----------|--------3-----------3----|--------3-----------3----|
E-------------------------|--3-----------3----------|--3-----------3----------|


   *     *     *     *       *     *     *     *       *     *     *     *
E-------------------------|-------------------------|-------------------------|
B-------------------------|-------------------------|-----------1-------------|
G--3--------3-------------|--3--------3-------------|-----0-----------0-------|
D-----0-----------0-------|-----0-----------0-------|--------3-----------3----|
A--------1-----------1----|--------1-----------1----|-------------------------|
E--3-----------3----------|--3-----------3----------|--3-----------3----------|


   *     *     *     *       *     *     *     *       *     *     *     *
E-------------------------|-------------------------|-------------------------|
B--1--------1-------------|--5--------5-------------|--8--------8-------------|
G-----0-----------0-------|-----0-----------0-------|-----0-----------0-------|
D--------3-----------3----|--------5-----------5----|--------5-----------5----|
A-------------------------|--3-----------3----------|-------------------------|
E--3-----------3----------|-------------------------|--7-----------7----------|


   *     *     *     *       *     *     *     *       *     *     *     * 
E-------------------------|-------------------------|-------------------------|
B--6--------6-------------|-------------------------|-----------3-------------|
G-----5-----------5-------|--5--------5-------------|--5--------------5-------|
D--------3-----------3----|-----5-----------5-------|-----5-------------------|
A--0-----------0----------|--------3-----------3----|--------3-----------3----|
E-------------------------|--3-----------3----------|--3-----------3----------|


   *     *     *     *       *     *     *     *       *     *     *     *
E-------------------------|-------------------------|-------------------------|
B-------------------------|-------------------------|-----------1-------------|
G--3--------3-------------|--3--------3-------------|-----0-----------0-------|
D-----0-----------0-------|-----0-----------0-------|--------3-----------3----|
A--------1-----------1----|--------1-----------1----|-------------------------|
E--3-----------3----------|--3-----------3----------|--3-----------3----------|


   *     *     *     *       *     *     *     *       *     *     *     *
E-------------------------|-------------------------|-----------7-------------|
B--1--------1-------------|--5--------5-------------|--8--------------8-------|
G-----0-----------0-------|-----0-----------0-------|-----0-------------------|
D--------3-----------3----|--------5-----------5----|--------5-----------5----|
A-------------------------|--3-----------3----------|-------------------------|
E--3-----------3----------|-------------------------|--7-----------7----------|


   *     *     *     *       *     *     *     *       *     *     *     *
E-------------------------|-----------8-------------|-------------------------|
B-----------6-------------|--6--------------6-------|-----------8-------------|
G-----0-----------0-------|-----0-------------------|-----0-----------0-------|
D--------7-----------7----|--------7-----------7----|--------5-----------5----|
A-------------------------|-------------------------|-------------------------|
E--8-----------8----------|--8-----------8----------|--7-----------7----------|


   *     *     *     *       *     *     *     *       *     *     *     *
E-------------------------|-------------------------|-------------------------|
B--8--------8-------------|--6--------6-------------|--5--------5-------------|
G-----0-----------0-------|-----5-----------5-------|-----5-----------5-------|
D--------5-----------5----|--------3-----------3----|--------2-----------2----|
A-------------------------|--0-----------0----------|--0-----------0----------|
E--7-----------7----------|-------------------------|-------------------------|


   *     *     *     *       *     *     *     *       *     *     *     *
E-------------------------|-------------------------|-------------------------|
B-------------------------|-----------3-------------|-------------------------|
G--5--------5-------------|--5--------------5-------|--3--------3-------------|
D-----5-----------5-------|-----5-------------------|-----0-----------0-------|
A--------3-----------3----|--------3-----------3----|--------1-----------1----|
E--3-----------3----------|--3-----------3----------|--3-----------3----------|


   *     *     *     *       *     *     *     *       *     *     *     *
E-------------------------|-------------------------|-------------------------||
B-------------------------|-----------1-------------|--1--------1-------------||
G--3--------3-------------|-----0-----------0-------|-----0-----------0-------||
D-----0-----------0-------|--------3-----------3----|--------3-----------3----||
A--------1-----------1----|-------------------------|-------------------------||
E--3-----------3----------|--3-----------3----------|--3-----------3----------||


Alternate fingering for bar 3 and also bars 25 and 26:

E||--1--------1-------------|--0--------0-------------||
B||-----1-----------1-------|-----1-----------1-------||
G||-------------------------|-------------------------||
D||--------3-----------3----|--------2-----------2----||
A||--0-----------0----------|--0-----------0----------||
E||-------------------------|-------------------------||





Comments


Popular Jansch Bert tabs & chords
As The Day Grows Longer Now Tabs
Caledonia Tabs
Down River Tabs
Jack Orion Tabs
Stone Monkey Tabs
The Bright New Year Tabs
The First Time Ever I Saw Your Face Tabs
The River Bank Tabs
Toy Balloon Tabs
Walk Quietly By Tabs


Song lyrics



↑ Back to top | Tablatures and chords are parodies/interpretations of the original songs. You may use it for private study, scholarship, research or language learning purposes only
© 2014 AZChords.com Contact us | Privacy policy | DMCA | Add/correct tabs | Request tabs | Top 50 tabs