» » »

Jansch Bert, High Emotion Tabs (ver.1)

Artists:  A B C D E F G H I J K L M N O P Q R S T U V W X Y Z # 

High Emotion Tabs (ver.1)

Jansch Bert Tabs
 Rating:
4/5 (4 votes)
High Emotion lessons Tabs too difficult? Try these video lessons and learn fast
                Tuning: EADGBE

This is really simple to play and a really nice tune. It's in 4/4 but watch out for a bar
of 2/4. The asterisks represent the beats. The instrumental break after the 1st verse is
just the guitar part again, but watch for slight variations throughout; listen to the
recording to get it down exact if wish.

Rhythm: 4/4

     Intro:
Beat *     *     *     *        *     *     *     *   
E||--------------------------|--------------------------|
B||--------3-----------3-----|--------3-----------1-----|
G||-----2-----2-----2-----2--|-----2-----2-----------0--|
D||--0-----------------------|-----------------2--------|
A||--------------3-----------|--1-----------0-----------|
E||--------------------------|--------------------------|


   *     *     *     *        *     *     *     *   
E--------------------------|--------------------------|
B--------0-----1-----0-----|--------0-----1-----0-----|
G-----------0-----0-----0--|-----------0-----0-----0--|
D-----0--------2-----0-----|-----0--------2-----0-----|
A--------------------------|--------------------------|
E--3-----------------------|--3-----------------------|


   *     *     *     *        *     *     *     *  
E--------------------------|--------------------------|
B--------3-----------3-----|--------3-----------1-----|
G-----2-----2-----2-----2--|-----2-----------------0--|
D--0-----------------------|-----------------2--------|
A--------------3-----------|--1--------1--0-----------|
E--------------------------|--------------------------|


   *     *     *     *        *     *     *     *  
E--------------------------|--------------------------|
B--------0-----1-----0-----|--------0-----1-----0-----|
G-----------0-----0-----0--|-----------0-----0-----0--|
D-----0--------2-----0-----|-----0--------2-----0-----|
A--------------------------|--------------------------|
E--3-----------------------|--3-----------------------|

Verse (and instrumental):
   *     *     *     *        *     *     *     * 
E--------------------------|--------------------------|
B--------3-----------3-----|--------3-----------1-----|
G-----2-----2-----2-----2--|-----2-----2-----------0--|
D--0-----------------------|-----------------2--------|
A--------------3-----------|--1-----------0-----------|
E--------------------------|--------------------------|


   *     *     *     *       *      *     *     *  
E--------------------------|--------------------------|
B--------0-----1-----0-----|-----------1-----------3--|
G-----------0-----0-----0--|--------0-----------0-----|
D-----0--------2-----0-----|-----2-----------0--------|
A--------------------------|--------------------------|
E--3-----------------------|--3-----------3-----------|


   *     *     *     *        *     *     *     *   
E--------------------------|--------------------------|
B-----------3-----------3--|--------0-----1-----0-----|
G--------2-----------2-----|-----------0-----0-----0--|
D-----0-----------0--------|-----0--------2-----0-----|
A--------------------------|--------------------------|
E--1-----------1-----------|--3-----------------------|


   *     *     *     *        *     *     *     *    
E--------------------------|--------------------------|
B--------0-----1-----0-----|--------3-----------3-----|
G-----------0-----0-----0--|-----2-----2-----2-----2--|
D-----0--------2-----0-----|--0-----------------------|
A--------------------------|--------------3-----------|
E--3-----------------------|--------------------------|


   *     *     *     *        *     *     *     *    
E--------------------------|--------------------------|
B--------3-----------1-----|--------0-----1-----0-----|
G-----2-----2-----------0--|-----------0-----0-----0--|
D-----------------2--------|-----0--------2-----0-----|
A--1-----------0-----------|--------------------------|
E--------------------------|--3-----------------------|


   *     *     *     *        *     *     *     *    
E--------------------------|--------------------------|
B-----------1-----------3--|-----------3-----------3--|
G--------0-----------0-----|--------2-----------2-----|
D-----2-----------0--------|-----0-----------0--------|
A--------------------------|--------------------------|
E--3-----------3-----------|--1-----------1-----------|


   *     *     *     *        *     *     *     *     
E--------------------------|--------------------------|
B--------0-----1-----0-----|-----------5-----------3--|
G-----------0-----0-----0--|--------0-----------0-----|
D-----0--------2-----0-----|-----5-----------4--------|
A--------------------------|--3-----------3-----------|
E--3-----------------------|--------------------------|


   *     *     *     *        *     *     *     *   
E--------------------------|--------1-----------------|
B--------0-----------0-----|--------3--------------1--|
G-----------0-----0-----0--|-----2-----2--------0-----|
D-----0--------0-----------|--0--------------2--------|
A--------------------------|--------------3-----------|
E--3-----------------------|--------------------------|


   *     *     *     *        *     *     *     *
E--------------------------|--------------------------|
B--------0-----------0-----|-----------5-----------3--|
G-----------0-----0--------|--------0-----------0-----|
D-----0--------0-----------|-----5-----------4--------|
A--------------------------|--3-----------3-----------|
E--3--------------------3--|--------------------------|


   *     *     *     *        *     *     *     * 
E--------------------------|--------1-----------1-----|
B--------0-----------0-----|--------3-----------1-----|
G-----------0-----0-----0--|-----2-----------------2--|
D-----0--------0-----------|--0--------0-----3--------|
A--------------------------|--------------------------|
E--3-----------------------|--------------1-----------|


   *     *     *     *        *     *     *     *        *     *
E--------------------------|--------------------------|--------------|
B--------0-----1-----0-----|-----------0--------3-----|--------1-----|
G-----------0-----0-----0--|--------0--------2-----0--|-----0-----0--|
D-----0--------2-----0-----|-----0--------3-----------|--2-----------|
A--------------------------|--------------------------|--------------|
E--3-----------------------|--3-----------------------|--------------|


   *     *     *     *        *     *     *     * 
E--------------------------|--------------------------|
B--------0-----1-----0-----|--------3-----------3-----|
G-----------0-----0-----0--|-----------2-----2--------|
D-----0--------2-----0-----|-----0--------0-----------|
A--------------------------|--------------------------|
E--3-----------------------|--1--------------------1--|


   *     *     *     *      
E--------------------------||
B--------0-----1-----0-----||
G-----------0-----0-----0--||
D-----0--------2-----0-----||
A--------------------------||
E--3-----------------------||
            
Submit corrections

comments powered by Disqus
↑ Back to top | Jansch Bert Tabs for High Emotion. Lyrics for acoustic guitar and electric guitar. Tablatures and chords are parodies/interpretations of the original songs. You may use it for private study, scholarship, research or language learning purposes only