>
 >
Go Your Way My Love

Go Your Way My Love Guitar Tabs

Jansch Bert - Go Your Way My Love chords, tabs, tablatures, lyrics

Guitar lessons | Add/correct | Request | Top 50 tabs Artists:  A B C D E F G H I J K L M N O P Q R S T U V W X Y Z 0-9

Go Your Way My Love Guitar Tabs – Jansch Bert

CD, Sheet music, Poster

Do you like Go Your Way My Love? Share with your friends now
Tabs
"Go your way my love",   Bert Jansch


Source: tape
-----------------------------------------

tuning : DADGAd

Symbols: /	- slide up
	 *4/5	- play '4' rather loud.
	 p	- pull off


-----------------------------------------


d:--------0-----------0--|
A:-----0-----0-----0-----|
G:--2--------------------|
D:--------------0--------| X11
A:-----------------------|
D:--0-----------0--------|


d:-----------0------------0--|--0-----0---------------0-|
A:--------0-----0-----3------|-----3---------------3----|
G:----0------------0---------|--0--------0----4---------|
D:---------------------------|--------------------------|
A:---------------------------|--------------------------|
D:-*4/5------------5---------|--5-------------5---------|
                     Drawing    wat  -  ter  from the


d:--------0-----------0--|--------0-----------0--|
A:-----0-----0-----0-----|-----0-----0-----0-----|
G:--2--------------------|--2--------------------|
D:--------------0--------|--------------0--------|
A:-----------------------|-----------------------|
D:--0-----------0--------|--0-----------0--------|
    well,



d:-----------0------------0---|--0-----0--------------0-|
A:--------0-----0-----3-------|-----3--------------3----|
G:----0------------0----------|--0--------0----4--------|
D:----------------------------|-------------------------|
A:----------------------------|-------------------------|
D:-*4/5------------5----------|--5-------------5--------|
                     spilling    o  -    ver  on  the


d:--------0-----------0--|--------0-----------0-|
A:-----0-----0-----0-----|-----0-----0-----0----|
G:--2--------------------|--2-------------------|
D:--------------0--------|--------------0-------|
A:-----------------------|----------------------|
D:--0-----------0--------|--0-----------0-------|
    grass,



d:-----------0-------------0--|----0-----0--------------0-|
A:--------0-----0-----3-------|-------3--------------3----|
G:----0------------0----------|----0--------0----4--------|
D:----------------------------|---------------------------|
A:----------------------------|---------------------------|
D:-*4/5------------5----------|----5-------------5--------|
                     walking home-ward     my   heart is    


d:--2--2--2--2-----2--2--|	|-0--0--0--0----7--0--|
A:--2--2--2--2-----2--2--|	|-0--0--0--0----0--0--|
G:--4--4--4--4-----4--4--|	|-7--7--7--7----7--7--|
D:--2--2--2--2-----2--2--|	|-0--0--0--0----------| X2
A:--2--2--2--2-----2--2--|	|-0--0--0--0----------|
D:--2--2--2--2-----2--2--|	|---------------------|
 fi -   lled         with      pain,  



                note1 
d:-0--0--0---0-------------|    |-7-----4------5-p-4--|
A:-0--0--0---0-------0-----|    |-0-------------------|
G:-7--7--7-------5------p0-|    |----0---------0------|
D:-0--0--0-----------------|    |-------4----------4--| x2
A:-------------------------|    |---------------------|
D:-------------------------|    |-----------0---------|
            woe -oh  oh  oh      oh   is  me



d:-7-----4-----5-p-4--7-----4-|----------2-|----------2---|
A:-0------------------0-------|----3-------|----3---------|
G:----0--------0---------0----|-0-----0----|-0-----0-----0|
D:-------4--0---------------4-|------------|--------------|
A:----------------------------|----3-------|----3---------|
D:----------------------------|------------|--------------|
                       go your  way



d:-------0-----------0--|        |-----5-p-4---7-----4--|
A:----0-----0-----0-----|        |-------------0--------|
G:-2--------------------|        |-----0----------0-----|
D:-------------0--------| X3     |-------------------4--|
A:----------------------|        |-4/5------------------|
D:-0-----------0--------|        |----------------------|
   my    love,                                   go your



d:----------2-|----------2---|    |-------0-----------0|
A:----3-------|----3--------3|    |----0-----0-----0---|
G:-0-----0----|-0-----0------|    |-2------------------|
D:------------|--------------|    |-------------0------| X6
A:----3-------|----3---------|    |--------------------|
D:------------|--------------|    |-0-----------0------|
    way                            my          love


--------------------------------------
note0  : The 'X3', 'X6' and 'x11'  'repeat block'
informations written here, may be different in the next
verses and chorus; ( have a listen to the tape )
but the theme remains the same.


note1

d:-0--0--0---0--------------|	   
A:-0--0--0---0-------0------| here, the notes 5-0-p0
G:-7--7--7-------5------p0--| should be played fast.
D:-0--0--0------------------|  
A:--------------------------| The space in the notation is 
D:--------------------------| for simplicity of writting
            woe -oh  oh  oh     the lyrics.


note2 : in general, the sound is rather sustained.

---------------------------------------





Comments


Popular Jansch Bert tabs & chords
Betts Dance Tabs
Bird Song Tabs
Birthday Blues Tabs
Change The Song Tabs
Curragh Of Kildare Tabs
I Am Lonely Tabs
Sweet Death Tabs
Sylvie 1 Tabs
The Bright New Year Tabs
Wishing Well Tabs


Song lyrics



↑ Back to top | Tablatures and chords are parodies/interpretations of the original songs. You may use it for private study, scholarship, research or language learning purposes only
© 2014 AZChords.com Contact us | Privacy policy | DMCA | Add/correct tabs | Request tabs | Top 50 tabs