» » »

Jansch Bert, Change The Song Tabs (ver.1)

Artists:  A B C D E F G H I J K L M N O P Q R S T U V W X Y Z # 

Change The Song Tabs (ver.1)

Jansch Bert Tabs
 Rating:
4/5 (4 votes)
Change The Song lessons Tabs too difficult? Try these video lessons and learn fast
                Tuning: EADGBE
Capo: 3rd Fret


This is another really easy one to play and great for beginner Bert fans.
Here I've tabbed the intro and a typical verse but he shows slight 
variation between verses so check the recording. :o)

Rhythm: 4/4

  Intro:                                                           2x
E||-------||------0--------0-----------|-----0--------0------------||
B||-------||--/5--------5--------5-\3--|--3--------8--------8------||
G||-------||*-/6--------6--------6-\4--|--4--------7--------7-----*||
D||-------||*-/7--------7--------7-\5--|--5-------/9--------9-----*||
A||----0--||---------0--------0-----0--|--------0--------0-----0---||
E||-------||---------------------------|---------------------------||


 Verse:                                                     
E-----0--------0-----------|-----0--------0-----------|
B--5--------5--------5-----|--3--------8--------8-----|
G--6--------6--------6-----|--4--------7--------7-----|
D--7--------7--------7-----|--5-------/9--------9-----|
A--0-----0--------0-----0--|--------0--------0-----0--|
E--------------------------|--------------------------|


                                                      
E-----0--------0-----------|-----5--------5-----------|
B--3--------3--------3-----|--2--------2--------2-----|
G--2--------2--------2-----|--2--------2--------2-----|
D--4--------4--------4-----|--2--------2--------2-----|
A--------0--------0-----0--|--0-----0--------0-----0--|
E--------------------------|--------------------------|


                                                      
E--5--5--------5-----------|-----5--------5-----------|
B--3--3-----3--------3-----|--2--------2--------2-----|
G--2--2-----2--------2-----|--2--------2--------2-----|
D--4--------4--------4-----|--2--------2--------2-----|
A--------0--------0-----0--|--0-----0--------0-----0--|
E--------------------------|--------------------------|


                                                      
E-----5--------5-----------|-----4--------4-----------|
B--3--------3--------3-----|--0--------0--------0-----|
G--2--------2--------2-----|--1--------1--------1-----|
D--4--------4--------4-----|--2--------2--------2-----|
A--0-----0--------0--------|--------------------------|
E-----------------------0--|--0-----0--------0-----0--|


 Strum on some verses:                                             
E-----2--------2-----------|-----0--------0-----------|
B--2--------2--------2-----|--2--------2--------2-----|
G--2--------2--------2-----|--2--------2--------2-----|
D--4--------4--------4-----|--2--------2--------2-----|
A-----------------------0--|--------0--------0-----0--|
E--2-----2--------2--------|--------------------------|


                                                      
E-----0--------0-----------|-----0--------0-----------|
B-/5--------5--------5-\3--|--3--------8--------8-----|
G-/6--------6--------6-\4--|--4--------7--------7-----|
D-/7--------7--------7-\5--|--5-------/9--------9-----|
A--------0--------0-----0--|--------0--------0-----0--|
E--------------------------|--------------------------|


                                                            
E------0---------0------------|------0---------0------------|
B--10--------10--------10-----|--10--------10--------10-\8--|
G--11--------11--------11-----|--9---------9---------9--\7--|
D--12--------12--------12-----|--11--------11--------11-\9--|
A---------0---------0------0--|---------0---------0------0--|
E-----------------------------|-----------------------------|


                                                      
E-----0--------0-----------|-----0--------0-----------|
B--8--------8--------8-----|--5--------5--------5-\3--|
G--7--------7--------7-----|--6--------6--------6-\4--|
D--9--------9--------9-----|--7--------7--------7-\5--|
A--------0--------0-----0--|--------0--------0-----0--|
E--------------------------|--------------------------|


                                                      
E-----0--------0-----------|-----0--------0-----------|
B--3--------8--------8-----|--5--------5--------5-\3--|
G--4--------7--------7-----|--6--------6--------6-\4--|
D--5--------9--------9-----|--7--------7--------7-\5--|
A--------0--------0-----0--|--------0--------0-----0--|
E--------------------------|--------------------------|


                            
E-----0--------0-----------||
B--3--------8--------8-----||
G--4--------7--------7-----||
D--5--------9--------9-----||
A--------0--------0-----0--||
E--------------------------||

TAB guide: / = slide up to from below
           \ = slide down to from above
            
Submit corrections

comments powered by Disqus
↑ Back to top | Jansch Bert Tabs for Change The Song. Lyrics for acoustic guitar and electric guitar. Tablatures and chords are parodies/interpretations of the original songs. You may use it for private study, scholarship, research or language learning purposes only