» » »

Jansch Bert, Blackbird In The Morning Tabs (ver.1)

Artists:  A B C D E F G H I J K L M N O P Q R S T U V W X Y Z # 

Blackbird In The Morning Tabs (ver.1)

Jansch Bert Tabs
 Rating:
4/5 (4 votes)
Blackbird In The Morning lessons Tabs too difficult? Try these video lessons and learn fast
                Tuning: EADGBE

This tune is played with a dotted 8th feel. As usual, Bert displays a little variation
here and there so listen to the recording if you want to get it down note for note. I
have divided the tab into 2 sections; verse and chorus. The sections are repeated as on the record.

3/4 time

Verse:
Beat *     *        *        *     *     *        *     *     *                   
E||--------7--------------|--------7-----7-----|-----------0--------|
B||--------7-h9-----7-----|--------7-----7-----|--------0-----------|
G||-----9--------9-----9--|-----8-----8-----8--|--------------------|
D||-----------------------|--------------------|-----7-----------7--|
A||-----------------------|--------------------|--------------------|
E||--0--------------------|--7-----------------|--9-----------9-----|


   *     *     *        *     *        *        *     *     *             
E-----------0--------|--------7--------------|--------4-----------|
B--------0-----------|--------7-h9-----7-----|--------7-----------|
G--------------------|-----9--------9-----9--|-----------4-----4--|
D-----7-----------7--|-----------------------|-----------4-----4--|
A--------------------|-----------------------|-----6--------------|
E--8-----------8-----|--0--------------------|--4-----------4-----|

                                                Chorus:
   *     *        *        *     *        *        *     *      *             
E--------0--------------|--------0-----------0--|--------9------------|
B--------0h-5-----0-----|--------0h-5-----0-----|--------10-----------|
G--------------6-----6--|--------------6--------|-----9------9-----9--|
D-----5-----------------|-----5-----------------|---------------------|
A--0--------------------|--0--------------------|--9------------9-----|
E-----------------------|-----------------------|---------------------|


   *     *     *        *     *      *        *     *     *             
E--------9-----------|--------9------------|--------9-----------|
B--------9-----------|--------10-----------|--------9-----------|
G-----9-----9-----9--|-----9------9-----9--|-----9-----9-----9--|
D--------------------|---------------------|--------------------|
A--------------------|--9------------9-----|--------------------|
E--9-----------9-----|---------------------|--9-----------9-----|


   *     *      *        *     *     *        *      *      *               
E--------9------------|--------9-----------|-----------------------|
B--------10-----------|--------9-----------|---------12--------10--|
G-----9------9-----9--|-----9-----9-----9--|---------11--------9---|
D---------------------|--------------------|------9---------7------|
A--9------------9-----|--------------------|-----------------------|
E---------------------|--9-----------9-----|--11---------9---------|


   *     *     *         
E--------7-----7-----||
B--------7-----7-----||
G-----8-----8-----8--||
D--------------------||
A--------------------||
E--7-----------------||
            
Submit corrections

comments powered by Disqus
↑ Back to top | Jansch Bert Tabs for Blackbird In The Morning. Lyrics for acoustic guitar and electric guitar. Tablatures and chords are parodies/interpretations of the original songs. You may use it for private study, scholarship, research or language learning purposes only