>
 >
As The Day Grows Longer Now

As The Day Grows Longer Now Guitar Tabs

Jansch Bert - As The Day Grows Longer Now chords, tabs, tablatures, lyrics

Guitar lessons | Add/correct | Request | Top 50 tabs Artists:  A B C D E F G H I J K L M N O P Q R S T U V W X Y Z 0-9

As The Day Grows Longer Now Guitar Tabs – Jansch Bert

CD, Sheet music, Poster

Do you like As The Day Grows Longer Now? Share with your friends now
Tabs
Tuning: EADGBE
Capo: 3rd fret

Pretty straightforward alternating bass piece this one; I've tabbed the intro and 
the first verse but there is slight variation between verses. Twang those notes as 
hard as you can! :o)


Rhythm: 4/4
Beat:*     *     *     *       *    *     *     *       *     *     *     *      
E||--3p-0-----------1-------|--0---------------------|-----------------1-------|
B||-----------3-------------|----------------1-------|--3p-0-----3-------------|
G||--------------------0----|----------0-------------|--------------------0----|
D||--------0----------------|-------2-----------0----|--------0----------------|
A||--3----------------------|--3---------------------|-------------------------|
E||--------------3----------|-------------3----------|--3-----------3----------|


   *    *     *     *       *     *     *     *       *    *     *     * 
E--0---------------------|-------------------------|------------------------|
B----------------1-------|--3--------0-----3-------|--1-------------1-------|
G----------0-------------|-----2-------------------|----------0-------------|
D-------2-----------0----|--------0-----------0----|-------2-----------2----|
A--3---------------------|-------------------------|--3---------------------|
E-------------3----------|--3-----------3----------|-------------3----------|

                                                     Verse:
   *     *     *     *       *    *     *     *       *     *     *     *
E-------------------------|------------------------|--3p-0-----------1-------|
B--1--------1-------------|--1-------------1-------|-----------3-------------|
G-----0-----------0-------|----------0-------------|--------0-----------0----|
D--------2-----------2----|-------2-----------2----|-------------------------|
A--3----------------------|--3---------------------|--3----------------------|
E--------------3----------|-------------3----------|--------------3----------|


   *    *     *     *       *     *     *     *       *    *     *     *
E--0---------------------|-----------------1-------|--0---------------------|
B----------------1-------|--3p-0-----3-------------|----------------1-------|
G----------0-------------|--------------------0----|----------0-------------|
D-------2-----------0----|-------------------------|-------2-----------0----|
A--3---------------------|--------0----------------|--3---------------------|
E-------------3----------|--3-----------3----------|-------------3----------|


   *     *     *     *       *    *     *     *       *    *     *     *
E-------------------------|------------------------|------------------------|
B--3--------0-----3-------|--1-------------1-------|--1-------------1-------|
G-----2-------------------|----------0-------------|----------0-------------|
D--------0-----------0----|-------2-----------2----|-------2-----------0----|
A-------------------------|--3---------------------|--3---------------------|
E--3-----------3----------|-------------3----------|-------------3----------|


   *     *     *     *       *    *     *     *       *     *     *     *
E-------------------------|------------------------|-----------------1-------|
B--3--------0-----3-------|--1-------------1-------|--3--0-----3-------------|
G-----2-------------------|----------0-------------|--------------------0----|
D--------0-----------0----|-------2-----------0----|--------0----------------|
A-------------------------|--3---------------------|-------------------------|
E--3-----------3----------|-------------3----------|--3-----------3----------|


   *    *     *     *       *     *     *     *       *    *     *     *
E--0---------------------|-------------------------|------------------------|
B----------------1-------|--3--------0-----3-------|--1-------------1-------|
G----------0-------------|-----2-------------------|----------0-------------|
D-------2-----------0----|--------0-----------0----|-------2-----------2----|
A--3---------------------|-------------------------|--3---------------------|
E-------------3----------|--3-----------3----------|-------------3----------|


   *     *     *     *       *     *     *     *       *    *     *     *
E-------------------------|-------------------------|------------------------|
B--1--------1-------------|--3--------0-----3-------|--1-------------1-------|
G-----0-----------0-------|-----2-------------------|----------0-------------|
D--------2-----------0----|--------0-----------0----|-------2-----------0----|
A--3----------------------|-------------------------|--3---------------------|
E--------------3----------|--3-----------3----------|-------------3----------|


   *     *     *     *       *    *     *     *       *     *     *     *
E-----------------1-------|--0---------------------|-------------------------|
B--3--0-----3-------------|----------------1-------|--3--------0-----3-------|
G--------------------0----|----------0-------------|-----2-------------------|
D--------0----------------|-------2-----------0----|--------0-----------0----|
A-------------------------|--3---------------------|-------------------------|
E--3-----------3----------|-------------3----------|--3-----------3----------|


   *    *     *     *       *     *     *     *       *     *     *     *
E------------------------|-------------------------|-------------------------|
B--1-------------1-------|--1--------1-------------|--3--------0-----3-------|
G----------0-------------|-----0-----------0-------|-----2-------------------|
D-------2-----------2----|--------2-----------0----|--------------------0----|
A--3---------------------|--3----------------------|--------0----------------|
E-------------3----------|--------------3----------|--3-----------3----------|


   *    *     *     *       *    *     *     *       *    *     *     *
E--1---------------------|--1---------------------|------------------------|
B----------0-----3-------|----------3-----0-------|--1-------------1-------|
G------------------------|------------------------|----------0-------------|
D-------0-----------0----|-------0-----------0----|-------2-----------2----|
A------------------------|------------------------|--3---------------------|
E--3----------3----------|--3----------3----------|-------------3----------|


   *     *     *     *       *     *     *     *       *    *     *     *
E-------------------------|-------------------------|--1---------------------|
B--1--------1-------------|--3--------0-----3-------|----------3-----0-------|
G-----0-----------0-------|-----2-------------------|------------------------|
D--------2-----------0----|--------0-----------0----|-------0-----------0----|
A--3----------------------|-------------------------|------------------------|
E--------------3----------|--3-----------3----------|--3----------3----------|


   *    *     *     *       *     *     *     *       *     *     *     *
E------------------------|-------------------------|-------------------------|
B--1-------------1-------|--1--------1-------------|--1--------1-------------|
G----------0-------------|-----0-----------0-------|-----0-----------0-------|
D-------2-----------2----|--------2-----------2----|--------2-----------2----|
A--3---------------------|--3----------------------|--3----------------------|
E-------------3----------|--------------3----------|--------------3----------|


 On instrumental and last 2 verses, replace 3rd last bar with this:
E------------------|------------------|------------------------||
B------------------|------------------|--1-------------1-------||
G------------------|------------------|----------0h-2----------||
D------------------|------------------|-------2-----------3----||
A------------------|------------------|--3---------------------||
E------------------|------------------|-------------1----------||

TAB guide: h = hammer on, p = pull off





Comments


Popular Jansch Bert tabs & chords
Birthday Blues Tabs
Blacksmith Tabs
Running From Home Tabs
Silver Raindrops Tabs
Sylvie Tabs
Sylvie 1 Tabs
The Lily Of The West Tabs
Tinkers Blues 1 Tabs
Twa Corbies Tabs
Walk Quietly By Tabs


Song lyrics



↑ Back to top | Tablatures and chords are parodies/interpretations of the original songs. You may use it for private study, scholarship, research or language learning purposes only
© 2014 AZChords.com Contact us | Privacy policy | DMCA | Add/correct tabs | Request tabs | Top 50 tabs