» » »

Lupin Tabs (ver.1)

Artists:  A B C D E F G H I J K L M N O P Q R S T U V W X Y Z # 

Lupin Tabs (ver.1)

Janno Gibbs
Rating:
0/5 (0 votes)

Hard to play? Try these video lessons and learn fast.
                (Intro)
hehe gawa q lang 2
this is my 1st Tab
-=Ynomrah_Manuel03=-

E|----2---2----2-3-2-0--------------------------------|
B|-0-3-0-3--0-3---------------------------------------|
G|----------------------------------------------------|
D|----------------------------------------------------|
A|----------------------------------------------------|
e|----------------------------------------------------|

E|----4----4----4-5-4-3-------------------------------|
B|-0-5--0-5--0-5--------------------------------------|
G|----------------------------------------------------|
D|----------------------------------------------------|
A|----------------------------------------------------|
e|----------------------------------------------------|

E|----6----6----6-7-6-5-------------------------------|
B|-0-7--0-7--0-7--------------------------------------|
G|----------------------------------------------------|
D|----------------------------------------------------|
A|----------------------------------------------------|
e|----------------------------------------------------|

E|----6----6----6-7-6-5-6-5-3-2-----------------------|
B|-0-7--0-7--0-7--------------------------------------|
G|----------------------------------------------------|
D|----------------------------------------------------|
A|----------------------------------------------------|
e|----------------------------------------------------|

E|----------------------------------------------------|
B|-0--7/8--7--5--3--2---------------------------------|
G|----------------------------------------------------|
D|----------------------------------------------------|
A|----------------------------------------------------|
e|----------------------------------------------------|

E|-7/8--7--5------------------------------------------|
B|----------------------------------------------------|
G|----------------------------------------------------|
D|----------------------------------------------------|
A|----------------------------------------------------|
e|----------------------------------------------------|


Hehe finish na try nyo poh!!!
            
Hard to play? Try these video lessons and learn fast. | Correct




comments powered by Disqus
↑ Back to top | Tablatures and chords are parodies/interpretations of the original songs. You may use it for private study, scholarship, research or language learning purposes only