» » »

Janis Joplin, Summertime Bass tabs (ver.1)

Artists:  A B C D E F G H I J K L M N O P Q R S T U V W X Y Z # 

Summertime Bass tabs (ver.1)

Janis Joplin Tabs
Rating:
0/5 (0 votes)
Summertime lessons Tabs too difficult? Try these video lessons and learn fast
                
  intro
G|------------------------------------------------------------------------------------------5-
D|5--3--------5-5-3---35--------5-5-3---35-------3--5-555-553-33-3-3--------3-3-345-555-553--3
A|------1--5---------5--1-1-5-5--------5--1-1-35--55--------------5-1-1-35-5-5-5--------------
E|--------------------------------------------------------------------------------------------


-------------|
-35--------3-|
5--1-1/3/5--5|
-------------|


  "Summer time, time, time.."                                     "Lord, so high"         
G|-----------------------------------53----53----53---5553---------------------------|
D|5-4-3--35------35-4-3--35---3--35----35----35----5------3----------------------5-35|
A|------5--3--6---------5--3-------3-----3-----3----3------5-555-556-666-665-3-1--5--|
E|-----------------------------------------------------------------------------------|

  "Your daddy's rich"                                           "don't you cry!"
G|--------------------------------3--33------5-----------------------------|
D|5-4-3--35------35-4-3--35---3--3-----5-5435----------5-4-3--35----------5|
A|------5--3--6---------5--3-------------------5435-535------5--3-3245-5-5-|
E|-------------------------------------------------------------------------|

  solo
G|-------------------------------------------------------------53--5553-----53----------2-2--2-2
D|5-555-553-33-33---------3---5-555-553-33-35--------------------5-----5------5-----------------
A|------------5--1-1/3/5-5-535------------5--1-11-/3/5-55-53-33---3-----3-33---3333-3134-4--4-4-
E|----------------------------------------------------------------------------------------------


-3-3--3-3-------------------------3-3--3-32-2------------3-3--3-3-3-3-2-2-3-3-----5-5467--75----
---------------------5--55---3-3-3-3--3-3------35-5-5-5-3-3--3-3--------------5-5-----------35-5
5-5--5-5-555333111000--5--3-3-3--------------53----5-5------------------------------------------
------------------------------------------------------------------------------------------------

          "one of these mornings"
---------------|
-5-5-5-3------5|
---------5-3-5-|
---------------|
            
Submit corrections

comments powered by Disqus
↑ Back to top | Janis Joplin Bass for Summertime. Lyrics for acoustic guitar and electric guitar. Tablatures and chords are parodies/interpretations of the original songs. You may use it for private study, scholarship, research or language learning purposes only