» » »

Janis Joplin, Move Over Bass tabs (ver.1)

Artists:  A B C D E F G H I J K L M N O P Q R S T U V W X Y Z # 

Move Over Bass tabs (ver.1)

Janis Joplin Tabs
 Rating:
4/5 (5 votes)
Move Over lessons Tabs too difficult? Try these video lessons and learn fast
1
                Janis Joplin - Move Over

Basstab by Jan Bjorklund, Finland; 
You are welcome to request for basstabs!
Bienvenidos a pedirme transcripciones para el bajo!
Fingering and positions as suggested by TablEdit. 

TablEdited by Jan Bjorklund for Barch
Tuning : E A D G 	Time Signature: 4/4

 |       |       |       |  You   say that|it's over baby....      
|--------------------------------|--------------------------------|
|--------------------------------|--------------------------------|
|--------------------------------|--------------------------------|
|--------------------------------|--------------------------------|

 |       |       |       |        |       |       |       |        
|--------------------------------|--------------------------------|
|--------------------------------|--------------------------------|
|--------------------------------|--------------------------------|
|--------------------------------|--------------------------------|

 |       |       |       |        |       |       |       |        
|--------------------------------|--------------------------------|
|--------------------------------|--------------------------------|
|--------------------------------|--------------------------------|
|--------------------------------|--------------------------------|

 |       |      Want you move     over    |       |       |        
|--------------------------------|------------------------10--7---|
|--------------------------------|--------------------10----------|
|--------------------------------|----------------10--------------|
|--------------------------------|--------------------------------|

 |       |       |       | You    know that I need|a man  |        
|------------10------10------7---|--------------------------------|
|--------------------------------|--------------------------------|
|--------------------------------|5-------------------------------|
|--------------------------------|--------------------------------|

 |       |       |       |        |       |       |       |        
|--------------------------------|--------------------------------|
|--------------------------------|--------------------------------|
|----------------------------3---|5-------------------------------|
|--------------------------------|--------------------------------|

 |       |       |       |        |       |       |       |        
|--------------------------------|--------------------------------|
|--------------------------------|--------------------------------|
|----------------------------5---|5-------------------------------|
|--------------------------------|--------------------------------|

 |       |       |       |        |       |       |       |        
|----------------------------10--|------------------------10------|
|------------------------10------|----12--12----------10----------|
|--------------------12----------|----------------12--------------|
|--------------------------------|----------------------------10--|

 |       |       |       |        |       |       |       |        
|--------------------------------|--------------------------------|
|--------------------5-------5---|6-------5-------5-----------5---|
|------------8-------------------|------------8-----------5-------|
|--------------------------------|--------------------------------|

 |       |       |       |        |       |       |       |        
|--------------------------------|7-------5-------5---5-----------|
|------------------------5-------|------------7-------------------|
|----8-----------8---------------|--------------------------------|
|--------------------------------|--------------------------------|

 |       |       |       |        |       |       |       |        
|--------------------------------|--------------------------------|
|----------------3-------5-------|6---5-------3-------------------|
|------------5-------------------|--------------------5-------3---|
|--------------------------------|--------------------------------|

 |       |       |       |        |       |       |       |        
|--------------------------------|--------------------------------|
|----------------------------3---|------------------------3-------|
|------------------------3-------|----5---5-----------3-------5---|
|----5---------------5-----------|----------------5---------------|

 |       |       |       |   I    ain't quite a ready..   |        
|--------------------------------|--------------------------------|
|------------3-------5-------3---|6-------5-------5-----------5---|
|--------------------------------|------------8-----------5-------|
|--------------------------------|--------------------------------|

 |       |       |       |        |       |       |       |        
|--------------------------------|7-------5-------5---5-----------|
|------------------------5---5---|------------7---------------3---|
|----8-----------8---------------|--------------------------------|
|--------------------------------|--------------------------------|

 |       |       |       |        |       |       |       |        
|--------------------------------|--------------------------------|
|----------------3-------5-------|6---5-------3-------------------|
|------------5-------------------|--------------------5-------3---|
|--------------------------------|--------------------------------|

 |       |       |       |        |       |       |       |        
|--------------------------------|--------------------------------|
|--------------------------------|------------------------3-------|
|--------------------------------|--------------------3-------5---|
|----5---------------------------|----------------5---------------|

 |       |       |       |        |       |       |       |        
|--------------------------------|--------------------------------|
|--------------------------------|--------------------------------|
|----------------5-------6-------|7-------7-------7-------7---5---|
|--------------------------------|--------------------------------|

 mind... |       |       |        |       |       |       |        
|--------------------------------|--------------------------------|
|----------------------------5---|5-------5-------5-------5---5---|
|7-------7-------7-------7-------|--------------------------------|
|--------------------------------|--------------------------------|

 |       |       |       |        |       |       |       |        
|----------------4---------------|--------------------------------|
|5-------5-----------7---5---4---|--------------------------------|
|--------------------------------|7-------7-------7-------7---5---|
|--------------------------------|--------------------------------|

 |       |       |       |        |       |       |       |        
|--------------------------------|--------------------------------|
|------------------------7---5---|5-------5-------5-------5---4---|
|7-------7-------7---------------|--------------------------------|
|--------------------------------|--------------------------------|

 |       |       |       |        |       |       |       |        
|--------------------------------|--------------------------------|
|5---------------------------2---|7-------7-------7-------7---5---|
|----2-------3-------4---5-------|--------------------------------|
|--------------------------------|--------------------------------|

 |       |       |       |        |       |       |       |        
|------------9-------9-----------|--------------------------------|
|7-------7---------------7---5---|--------------------------------|
|--------------------------------|3-------------------------------|
|--------------------------------|--------------------------------|

 |       |       |       |        |       |       |       |        
|--------------------------------|--------------------------------|
|--------------------------------|--------------------------------|
|3---3-------2-------------------|1---1-------0-------------------|
|--------------------------------|--------------------------------|

 |       |       |       |        |       |       |       |        
|--------------------------------|7-7---7-6---5-5---4-4---3-2-0---|
|--------------------------------|--------------------------------|
|5-------5-------5-------5-------|--------------------------------|
|--------------------------------|--------------------------------|

 (S O L O)       |       |        |       |       |       |        
|--------------------------------|--------------------------------|
|--------------------------------|--------------------------------|
|5-------5-------5-------5---3---|5-------5-------5-------5---3---|
|--------------------------------|--------------------------------|

 |       |       |       |        |       |       |       |        
|--------------------------------|--------------------------------|
|--------------------------------|--------------------------------|
|5-------5-------5-------5---3---|5-------5-------5-------5---3---|
|--------------------------------|--------------------------------|

 |       |       |       |        |       |       |       |        
|--------------------------------|--------------------------------|
|--------------------------------|--------------------------------|
|5-------5-------5-------5---3---|5p--3---5-------5-------5---3---|
|--------------------------------|--------------------------------|

 |       |       |       |        |       |       |       |        
|--------------------------------|----------------7-----7-7---5---|
|--------------------------------|------------7-------------------|
|5p--3---5-------5-------5---3---|5-------5-----------------------|
|--------------------------------|--------------------------------|

 |       |       |       |        |       |       |       |        
|--------------------------------|--------------------------------|
|--------------------------------|------------------------7---5---|
|7-------7-------7-------7---5---|7-------7-------7---------------|
|--------------------------------|--------------------------------|

 |       |       |       |        |       |       |       |        
|--------------------------------|--------------------------------|
|5-------5-------5-------5---3---|5-------5-------5-------5-------|
|--------------------------------|--------------------------------|
|--------------------------------|--------------------------------|

 |       |       |       |        |       |       |       |        
|--------------------------------|--------------------------------|
|--------------------------------|--------------------------------|
|5h7-----7-------7-------7---5---|7-------7-------7-------7-------|
|--------------------------------|--------------------------------|

 |       |       |       |        |       |       |       |        
|--------------------------------|--------------------------------|
|5-------5-------5-------5---4---|--------------------------------|
|--------------------------------|--------------------------------|
|--------------------------------|3-------3-------3-------3---5---|

 |       |       |       |        |       |       |       |        
|--------------------------------|--------------------------------|
|--------------------------------|--------------------------------|
|--------------------------------|--------------------------------|
|5-------5-------5-------5---3---|5-------5-------5-------5---3---|

 |       |       |       |        |       |       |       |        
|--------------------------------|--------------------------------|
|--------------------------------|--------------------------------|
|3-------------------------------|3---3-------2-------------------|
|--------------------------------|--------------------------------|

 |       |       |       |     You| say that it's over baby        
|--------------------------------|--------------------------------|
|--------------------------------|--------------------------------|
|1---1-------0-------------------|5------------------and so on...-|
|--------------------------------|--------------------------------|

 |       |       |       |        |       |       |       |        
|--------------------------------|--------------------------------|
|----------------This it it more or less isn't it?----------------|
|--------------------------------|--------------------------------|
|--------------------------------|--------------------------------|
            
Submit corrections

comments powered by Disqus
↑ Back to top | Janis Joplin Bass for Move Over. Lyrics for acoustic guitar and electric guitar. 1 Tablatures and chords are parodies/interpretations of the original songs. You may use it for private study, scholarship, research or language learning purposes only