>
 >
Gamer Sind Geil

Gamer Sind Geil Guitar Tabs

Jan Hegenberg - Gamer Sind Geil chords, tabs, tablatures, lyrics

Guitar lessons | Add/correct | Request | Top 50 tabs Artists:  A B C D E F G H I J K L M N O P Q R S T U V W X Y Z 0-9

Gamer Sind Geil Guitar Tabs – Jan Hegenberg

CD, Sheet music, Poster

Do you like Gamer Sind Geil? Share with your friends now
Tabs
-------------------------------------------------------------------------------
-------------------------------------------------------------------------------

Tuning: 1 step down

Intro:

D||--------------------------|--------------------------|
A||--------------------------|--------------------------|
F||--9--9--9--9--------------|--------------------------|
C||--9--9--9--9--9--9--9--9--|--4--4--4--4--7--7--7--7--|
G||--7--7--7--7--9--9--9--9--|--4--4--4--4--7--7--7--7--|
D||--------------7--7--7--7--|--2--2--2--2--5--5--5--5--|

D||--------------------------|------------------------------|
A||--------------------------|------------------------------|
F||--9--9--9--9--------------|------------------------------|
C||--9--9--9--9--9--9--9--9--|--4--4--4--4--x-x-x-x-x-x-x-x-|
G||--7--7--7--7--9--9--9--9--|--4--4--4--4--x-x-x-x-x-x-x-x-|
D||--------------7--7--7--7--|--2--2--2--2--x-x-x-x-x-x-x-x-|

D||--------------------------|--------------------------|
A||--------------------------|--------------------------|
F||--9--9--9--9--------------|--------------------------|
C||--9--9--9--9--9--9--9--9--|--4--4--4--4--7--7--7--7--|
G||--7--7--7--7--9--9--9--9--|--4--4--4--4--7--7--7--7--|
D||--------------7--7--7--7--|--2--2--2--2--5--5--5--5--|

D||--------------------------|--------------------------|
A||--------------------------|--------------------------|
F||--9--9--9--9--------------|--------------------------|
C||--9--9--9--9--9--9--9--9--|--------------------------|
G||--7--7--7--7--9--9--9--9--|--------------------------|
D||--------------7--7--7--7--|--5--5--5--5--5--5--5--5--|

Verse 1:
                                            PM PM              
D||---------------------------|--------------------------|
A||---------------------------|--------------------------|
F||---------------------------|--------------------------|
C||---------------------------|--------------------------|
G||--7--7--14s--7-------------|-------------7--7--14~----|
D||---------------------9~----|-------5~-----------------|

                                            PM PM            
D||---------------------------|-----------------------------|
A||---------------------------|-----------------------------|
F||---------------------------|-----------------------------|
C||---------------------------|-----------------------------|
G||--7--7--14s--7-------------|-------------7--7--14~---Ls--|
D||---------------------9~----|-------5~--------------------|

D||--------------------------|---------------------------|
A||--------------------------|---------------------------|
F||--------------------------|---------------------------|
C||--------------------------|---------------------------|
G||--7-----------------4~----|--------0~----7--7--14~----|
D||--------------2--2--------|---------------------------|

D||-----------------------------|-----------------------------|
A||-----------------------------|-----------------------------|
F||-----------------------------|-----------------------------|
C||-----------------------------|-----------------------------|
G||--7--7--14s~--7--------4~----|--------7s--0~--7--7--14~----|
D||-----------------2--2--------|-----------------------------|

Pre-Chorus:

D||----------------------|-------|--------------------------|-----------------------|
A||----------------------|-------|--------------------------|-----------------------|
F||--6----6--------------|-------|--6--6--6--6--------------|-----------------------|
C||--6----6----4----4----|-------|--6--6--6--6--4--4--4--4--|-----------------------|
G||--4----4----4----4----|-------|--4--4--4--4--4--4--4--4--|-----------14s----0----|
D||------------2----2----|-------|--------------2--2--2--2--|-----------------------|

Chorus:

D||--------------------------|--------------------------|
A||--------------------------|--------------------------|
F||--9--9--9--9--------------|--------------------------|
C||--9--9--9--9--9--9--9--9--|--4--4--4--4--7--7--7--7--|
G||--7--7--7--7--9--7--9--9--|--4--4--4--4--7--7--7--7--|
D||--------------7--7--7--7--|--2--2--2--2--5--5--5--5--|

D||--------------------------|--------------------------|
A||--------------------------|--------------------------|
F||--9--9--9--9--------------|--------------------------|
C||--9--9--9--9--9--9--9--9--|--4--4--4--4--7--7--7--7--|
G||--7--7--7--7--9--7--9--9--|--4--4--4--4--7--7--7--7--|
D||--------------7--7--7--7--|--2--2--2--2--5--5--5--5--|

D||--------------------------|--------------------------|
A||--------------------------|--------------------------|
F||--9--9--9--9--------------|--------------------------|
C||--9--9--9--9--9--9--9--9--|--4--4--4--4--7--7--7--7--|
G||--7--7--7--7--9--7--9--9--|--4--4--4--4--7--7--7--7--|
D||--------------7--7--7--7--|--2--2--2--2--5--5--5--5--|

     PM PM PM PM PM PM PM PM    PM PM PM PM PM PM PM PM  
D||--------------------------|--------------------------|
A||--------------------------|--------------------------|
F||--5--5--5--5--5--5--5--5--|--4--4--4--4--4--4--4--4--|
C||--5--5--5--5--5--5--5--5--|--4--4--4--4--4--4--4--4--|
G||--3--3--3--3--3--3--3--3--|--2--2--2--2--2--2--2--2--|
D||--------------------------|--------------------------|

Pre-Verse:

D||------------------------------|-----------------------------|
A||------------------------------|-----------------------------|
F||--9--9------------------------|-----------------------------|
C||--9--9--x-x-x-x-4--4----------|--7--7-----------------------|
G||--7--7--x-x-x-x-4--4--x-x-x-x-|--7--7--x-x-x-x-7---------7--|
D||----------------2--2--x-x-x-x-|--5--5--x-x-x-x----7--7-7----|

D||------------------------------|-----------------------------|
A||------------------------------|-----------------------------|
F||--9--9------------------------|-----------------------------|
C||--9--9----------4--4----------|-----------------------------|
G||--7--7--x-x-x-x-4--4--x-x-x-x-|--------x-x-x-x-7---------7--|
D||--------x-x-x-x-2--2--x-x-x-x-|--5--5--x-x-x-x----7-7-7-----|

Verse 2:
                                            PM PM
D||---------------------------|--------------------------|
A||---------------------------|--------------------------|
F||---------------------------|--------------------------|
C||---------------------------|--------------------------|
G||--7--7--14s--7-------------|-------------7--7--14~----|
D||---------------------9~----|-------5~-----------------|

                                            PM PM
D||---------------------------|--------------------------|
A||---------------------------|--------------------------|
F||---------------------------|--------------------------|
C||---------------------------|--------------------------|
G||--7--7--14s--7-------------|-------------7--7--14~----|
D||---------------------9~----|-------5~-----------------|

                                            PM PM
D||---------------------------|--------------------------|
A||---------------------------|--------------------------|
F||---------------------------|--------------------------|
C||---------------------------|--------------------------|
G||--7--7--14s--7-------------|-------------7--7--14~----|
D||---------------------9~----|-------5~-----------------|

                                            PM PM
D||---------------------------|--------------------------|
A||---------------------------|--------------------------|
F||---------------------------|--------------------------|
C||---------------------------|--------------------------|
G||--7--7--14s--7-------------|-------------7--7--14~----|
D||---------------------9~----|-------5~-----------------|

Pre-Chorus:

D||--------------------|-----|--------------------------|-----|
A||--------------------|-----|--------------------------|-----|
F||--6-----------------|-----|--6--6--6--6--------------|-----|
C||--6--------4--------|-----|--6--6--6--6--4--4--4--4--|-----|
G||--4--------4--------|-----|--4--4--4--4--4--4--4--4--|-----|
D||-----------2--------|-----|--------------2--2--2--2--|-----|

Chorus:

D||--------------------------|--------------------------|
A||--------------------------|--------------------------|
F||--9--9--9--9--------------|--------------------------|
C||--9--9--9--9--9--9--9--9--|--4--4--4--4--7--7--7--7--|
G||--7--7--7--7--9--7--9--9--|--4--4--4--4--7--7--7--7--|
D||--------------7--7--7--7--|--2--2--2--2--5--5--5--5--|

D||--------------------------|--------------------------|
A||--------------------------|--------------------------|
F||--9--9--9--9--------------|--------------------------|
C||--9--9--9--9--9--9--9--9--|--4--4--4--4--7--7--7--7--|
G||--7--7--7--7--9--7--9--9--|--4--4--4--4--7--7--7--7--|
D||--------------7--7--7--7--|--2--2--2--2--5--5--5--5--|

D||--------------------------|--------------------------|
A||--------------------------|--------------------------|
F||--9--9--9--9--------------|--------------------------|
C||--9--9--9--9--9--9--9--9--|--4--4--4--4--7--7--7--7--|
G||--7--7--7--7--9--7--9--9--|--4--4--4--4--7--7--7--7--|
D||--------------7--7--7--7--|--2--2--2--2--5--5--5--5--|

     PM PM PM PM PM PM PM PM    PM PM PM PM PM PM PM PM  
D||--------------------------|--------------------------|
A||--------------------------|--------------------------|
F||--5--5--5--5--5--5--5--5--|--4--4--4--4--4--4--4--4--|
C||--5--5--5--5--5--5--5--5--|--4--4--4--4--4--4--4--4--|
G||--3--3--3--3--3--3--3--3--|--2--2--2--2--2--2--2--2--|
D||--------------------------|--------------------------|

Solo:

   PM PM        PM PM           PM PM PM
|--------3-0----------5-0----|-------------------------------------|
|----------------------------|-------------------------------------|
|----------------------------|--------2----------------------------|
|--2--2---------0--0---------|--------2----------------------------|
|----------------------------|--0--0--0----------------------------|
|----------------------------|-------------2h-3h-4h-5p-2h-3h-4h-5p-|

   PM PM        PM PM           PM PM PM
|--------3-0----------5-0----|-----------------------------|
|----------------------------|-----------------------------|
|----------------------------|--------2--------------------|
|--2--2---------0--0---------|--------2--------------------|
|----------------------------|--0--0--0------5-----6-----7-|
|----------------------------|-------------0-3---0-4---0-5-|

One, Two, Three, Four...

   PM PM        PM PM           PM PM PM
|--------3-0----------5-0----|-------------------------------------|
|----------------------------|-------------------------------------|
|----------------------------|--------2----------------------------|
|--2--2---------0--0---------|--------2----------------------------|
|----------------------------|--0--0--0----------------------------|
|----------------------------|-------------2h-3h-4h-5p-2h-3h-4h-5p-|

   PM PM        PM PM           
|--------3-0----------5-0----|-----------------------------|
|----------------------------|-----------------------------|
|----------------------------|-----------------------------|
|--2--2---------0--0---------|-----------------14s----0----|
|----------------------------|--0--x--x--0--0--------------|
|----------------------------|-----------------------------|

Chorus:

D||--------------------------|--------------------------|
A||--------------------------|--------------------------|
F||--9--9--9--9--------------|--------------------------|
C||--9--9--9--9--9--9--9--9--|--4--4--4--4--7--7--7--7--|
G||--7--7--7--7--9--7--9--9--|--4--4--4--4--7--7--7--7--|
D||--------------7--7--7--7--|--2--2--2--2--5--5--5--5--|

D||--------------------------|--------------------------|
A||--------------------------|--------------------------|
F||--9--9--9--9--------------|--------------------------|
C||--9--9--9--9--9--9--9--9--|--4--4--4--4--7--7--7--7--|
G||--7--7--7--7--9--7--9--9--|--4--4--4--4--7--7--7--7--|
D||--------------7--7--7--7--|--2--2--2--2--5--5--5--5--|

D||--------------------------|--------------------------|
A||--------------------------|--------------------------|
F||--9--9--9--9--------------|--------------------------|
C||--9--9--9--9--9--9--9--9--|--4--4--4--4--7--7--7--7--|
G||--7--7--7--7--9--7--9--9--|--4--4--4--4--7--7--7--7--|
D||--------------7--7--7--7--|--2--2--2--2--5--5--5--5--|

     PM PM PM PM PM PM PM PM    PM PM PM PM PM PM PM PM  
D||--------------------------|--------------------------|
A||--------------------------|--------------------------|
F||--5--5--5--5--5--5--5--5--|--4--4--4--4--4--4--4--4--|
C||--5--5--5--5--5--5--5--5--|--4--4--4--4--4--4--4--4--|
G||--3--3--3--3--3--3--3--3--|--2--2--2--2--2--2--2--2--|
D||--------------------------|--------------------------|

Chorus:

D||--------------------------|--------------------------|
A||--------------------------|--------------------------|
F||--9--9--9--9--------------|--------------------------|
C||--9--9--9--9--9--9--9--9--|--4--4--4--4--7--7--7--7--|
G||--7--7--7--7--9--7--9--9--|--4--4--4--4--7--7--7--7--|
D||--------------7--7--7--7--|--2--2--2--2--5--5--5--5--|

D||--------------------------|--------------------------|
A||--------------------------|--------------------------|
F||--9--9--9--9--------------|--------------------------|
C||--9--9--9--9--9--9--9--9--|--4--4--4--4--7--7--7--7--|
G||--7--7--7--7--9--7--9--9--|--4--4--4--4--7--7--7--7--|
D||--------------7--7--7--7--|--2--2--2--2--5--5--5--5--|

D||--------------------------|--------------------------|
A||--------------------------|--------------------------|
F||--9--9--9--9--------------|--------------------------|
C||--9--9--9--9--9--9--9--9--|--4--4--4--4--7--7--7--7--|
G||--7--7--7--7--9--7--9--9--|--4--4--4--4--7--7--7--7--|
D||--------------7--7--7--7--|--2--2--2--2--5--5--5--5--|

     PM PM PM PM PM PM PM PM    PM PM PM PM PM PM PM PM  
D||--------------------------|--------------------------|-------||
A||--------------------------|--------------------------|-------||
F||--5--5--5--5--5--5--5--5--|--4--4--4--4--4--4--4--4--|--9-9--||
C||--5--5--5--5--5--5--5--5--|--4--4--4--4--4--4--4--4--|--9-9--||
G||--3--3--3--3--3--3--3--3--|--2--2--2--2--2--2--2--2--|--7-7--||
D||--------------------------|--------------------------|-------||

Thatīs it! Donīt forget to drop down 1 full step!

Enjoy it! Have Fun! Good Bye!!
Mikka04

| /  slide up
| \  slide down
| h  hammer-on
| p  pull-off
| ~  vibrato
| +  harmonic
| x  Mute note
===============================================================================





Comments


Popular Jan Hegenberg tabs & chords
Cheater An Die Wand 1 Chords
Du Sau Chords
Du Sau 1 Chords
Holly Chords
Vaporisiert 1 Chords
Warcraft Song Chords
Bad Time Touch Tabs
Die Mnnerballade Ukulele
Ich Bin Verliebt Ukulele
Wirtslied Ukulele


Song lyrics



↑ Back to top | Tablatures and chords are parodies/interpretations of the original songs. You may use it for private study, scholarship, research or language learning purposes only
© 2014 AZChords.com Contact us | Privacy policy | DMCA | Add/correct tabs | Request tabs | Top 50 tabs