» » »

Janez Detd, Deep Tabs (ver.1)

Artists:  A B C D E F G H I J K L M N O P Q R S T U V W X Y Z # 

Deep Tabs (ver.1)

Janez Detd Tabs
 Rating:
4.2/5 (5 votes)
Deep lessons Tabs too difficult? Try these video lessons and learn fast
                -------------------------------------------------------------------------------
			     Deep – Janez Detd
-------------------------------------------------------------------------------


Tuning: standard E tuning

Intro
E-x-x-x-x-7-x-x-x-x-7-x-x-9-----|
B-------------------------------|
G-------------------------------|x2
D-------------------------------|
A-------------------------------|
E-------------------------------|

Verse
E-------------------------------|
B-------------------------------|
G-------------------------------|x2
D--5-5---7-7---5-5---3-3-------|
A--5-5---7-7---5-5---3-3-------|
E--3-3---5-5---3-3---1-1-------|
					P.M.
E|---------------------------------------------------|
B|---------------------------------------------------|
G|---------------------------------------------------|
D|-5---5/7---5---5\3--5-5---5/7---5------------------|
A|-5---5/7---5---5\3--5-5---5/7---5---5555555555555--|
E|-3--—3/5---3---3\1--5-3---3/7---3---3333333333333--|
					
Chorus
E|------------------------------------------------|
B|------------------------------------------------|
G|------------------------------------------------|
D|--55555555----77777777----33333333----55555555--|x2
A|--55555555----77777777----33333333----55555555--|
E|--33333333----55555555----11111111----33333333--|


Intro
E-x-x-x-x-7-x-x-x-x-7-x-x-9-----|
B-------------------------------|
G-------------------------------|x2
D-------------------------------|
A-------------------------------|
E-------------------------------|

Verse					P.M.		P.M.	P.M.	P.M.
E-----------------------------------------------------------------------------|
B-----------------------------------------------------------------------------|
G-----------------------------------------------------------------------------|
D--5-5---7-7---5-5---3-3----5-5----------7-7----------5-5----------3-3--------|
A--5-5---7-7---5-5---3-3----5-5-5555555--7-7-7777777--5-5-5555555--3-3-3333333|
E--3-3---5-5---3-3---1-1----3-3-3333333--5-5-5555555--3-3-3333333--1-1-1111111|

					P.M.
E|--------------------------------------------------|
B|--------------------------------------------------|
G|--------------------------------------------------|
D|-5---5/7---5---5\3---5---5/7---5------------------|
A|-5---5/7---5---5\3---5---5/7---5---5555555555555--|
E|-3--—3/5---3---3\1---3---3/7---3---3333333333333--|


Chorus
E|------------------------------------------------|
B|------------------------------------------------|
G|------------------------------------------------|
D|--55555555----77777777----33333333----55555555--|x2
A|--55555555----77777777----33333333----55555555--|
E|--33333333----55555555----11111111----33333333--|

Intro
E-x-x-x-x-7-x-x-x-x-7-x-x-9-----|
B-------------------------------|
G-------------------------------|x2
D-------------------------------|
A-------------------------------|
E-------------------------------|

	
	P.M.
Bridge
E|-----------------------------|	
B|-----------------------------|
G|-----------------------------|x4
D|--7-7---3-3---5-5--5-5-5-3---|   D|--------------------|
A|--7-7---3-3---5-5--5-5-5-3---|   A|--5-55555555555555--|
E|--5-5---1-1---3-5--3-3-3-1---|   E|--3-33333333333333--|

Chorus
E|------------------------------------------------|
B|------------------------------------------------|
G|------------------------------------------------|
D|--55555555----77777777----33333333----55555555--|x2
A|--55555555----77777777----33333333----55555555--|
E|--33333333----55555555----11111111----33333333--|


| /  slide up
| \  slide down
| h  hammer-on
| p  pull-off
| ~  vibrato
| +  harmonic
| x  Mute note
            
Submit corrections

comments powered by Disqus
↑ Back to top | Janez Detd Tabs for Deep. Lyrics for acoustic guitar and electric guitar. Tablatures and chords are parodies/interpretations of the original songs. You may use it for private study, scholarship, research or language learning purposes only