>
 >
Deep

Deep Guitar Tabs

Janez Detd - Deep chords, tabs, tablatures, lyrics

Guitar lessons | Add/correct | Request | Top 50 tabs Artists:  A B C D E F G H I J K L M N O P Q R S T U V W X Y Z 0-9

Deep Guitar Tabs – Janez Detd

CD, Sheet music, Poster

Do you like Deep? Share with your friends now
Tabs
-------------------------------------------------------------------------------
			     Deep  Janez Detd
-------------------------------------------------------------------------------


Tuning: standard E tuning

Intro
E-x-x-x-x-7-x-x-x-x-7-x-x-9-----|
B-------------------------------|
G-------------------------------|x2
D-------------------------------|
A-------------------------------|
E-------------------------------|

Verse
E-------------------------------|
B-------------------------------|
G-------------------------------|x2
D--5-5---7-7---5-5---3-3-------|
A--5-5---7-7---5-5---3-3-------|
E--3-3---5-5---3-3---1-1-------|
					P.M.
E|---------------------------------------------------|
B|---------------------------------------------------|
G|---------------------------------------------------|
D|-5---5/7---5---5\3--5-5---5/7---5------------------|
A|-5---5/7---5---5\3--5-5---5/7---5---5555555555555--|
E|-3--3/5---3---3\1--5-3---3/7---3---3333333333333--|
					
Chorus
E|------------------------------------------------|
B|------------------------------------------------|
G|------------------------------------------------|
D|--55555555----77777777----33333333----55555555--|x2
A|--55555555----77777777----33333333----55555555--|
E|--33333333----55555555----11111111----33333333--|


Intro
E-x-x-x-x-7-x-x-x-x-7-x-x-9-----|
B-------------------------------|
G-------------------------------|x2
D-------------------------------|
A-------------------------------|
E-------------------------------|

Verse					P.M.		P.M.	P.M.	P.M.
E-----------------------------------------------------------------------------|
B-----------------------------------------------------------------------------|
G-----------------------------------------------------------------------------|
D--5-5---7-7---5-5---3-3----5-5----------7-7----------5-5----------3-3--------|
A--5-5---7-7---5-5---3-3----5-5-5555555--7-7-7777777--5-5-5555555--3-3-3333333|
E--3-3---5-5---3-3---1-1----3-3-3333333--5-5-5555555--3-3-3333333--1-1-1111111|

					P.M.
E|--------------------------------------------------|
B|--------------------------------------------------|
G|--------------------------------------------------|
D|-5---5/7---5---5\3---5---5/7---5------------------|
A|-5---5/7---5---5\3---5---5/7---5---5555555555555--|
E|-3--3/5---3---3\1---3---3/7---3---3333333333333--|


Chorus
E|------------------------------------------------|
B|------------------------------------------------|
G|------------------------------------------------|
D|--55555555----77777777----33333333----55555555--|x2
A|--55555555----77777777----33333333----55555555--|
E|--33333333----55555555----11111111----33333333--|

Intro
E-x-x-x-x-7-x-x-x-x-7-x-x-9-----|
B-------------------------------|
G-------------------------------|x2
D-------------------------------|
A-------------------------------|
E-------------------------------|

	
	P.M.
Bridge
E|-----------------------------|	
B|-----------------------------|
G|-----------------------------|x4
D|--7-7---3-3---5-5--5-5-5-3---|   D|--------------------|
A|--7-7---3-3---5-5--5-5-5-3---|   A|--5-55555555555555--|
E|--5-5---1-1---3-5--3-3-3-1---|   E|--3-33333333333333--|

Chorus
E|------------------------------------------------|
B|------------------------------------------------|
G|------------------------------------------------|
D|--55555555----77777777----33333333----55555555--|x2
A|--55555555----77777777----33333333----55555555--|
E|--33333333----55555555----11111111----33333333--|


| /  slide up
| \  slide down
| h  hammer-on
| p  pull-off
| ~  vibrato
| +  harmonic
| x  Mute note





Comments


Popular Janez Detd tabs & chords
Anti-anthem Bass Tabs
Breaking The Waves Bass Tabs
Take On Me Chords
Tonight Chords
Your Love Chords
Anti-Anthem Tabs
Deep Intro Tabs
Take On Me Ukulele
Tonight Ukulele
Your Love Ukulele


Song lyrics



↑ Back to top | Tablatures and chords are parodies/interpretations of the original songs. You may use it for private study, scholarship, research or language learning purposes only
© 2014 AZChords.com Contact us | Privacy policy | DMCA | Add/correct tabs | Request tabs | Top 50 tabs