>
 >
Breaking The Waves

Breaking The Waves Bass Tabs

Janez Detd - Breaking The Waves chords, tabs, tablatures, lyrics

Guitar lessons | Add/correct | Request | Top 50 tabs Artists:  A B C D E F G H I J K L M N O P Q R S T U V W X Y Z 0-9

Breaking The Waves Bass Tabs – Janez Detd

CD, Sheet music, Poster

Do you like Breaking The Waves? Share with your friends now
Bass Tabs
Janez detd  breaking the waves

intro
|-------------------------------------------------------------------------|
|-------------------------------------------------------------------------|
|0~---7~---5~---4~-------------5~-----------------------------------------|
|--------------------2~---0~----------55~---22~---00~---55~---22~---00~---|

Verse
|-------------------------------------------------------------------------|
|--------------------------------------------------------2-22-22-2-22-22-|
|-------------------------------------------------------------------------|
|5-55-55-2-22-22-0-00-000-00-00--5-55-55-2-22-22---------------------|

Chorus x3
|--------------------------------------------|
|--------------------------------------------|
|-----555555------000000---------------------|
|2-22-------0-00----------------------------|

End chorus x2
|--------------------------------------------|
|--------------------------------------------|
|------------------5~------------------------|
|2~-------0~---------------------------------|

Verse
Chorus x3
End chorus x2

Interlude1 
|------------------------------------------------------|
|------------------------------------------------------|
|------------------------------------------------------|
|55-55-5555--22-2222-22--00-00-0000--xxxxxxxx-------|

Interlude2 x2
|------------------------------------------------------|
|---------------------------2222222222--0000000000-----|
|------------------------------------------------------|
|5555555555--2222222222--------------------------------|

Interlude3
|------------------------------------------------------|
|------------------------------------------------------|
|----------------------------------------------55555555|
|5~----2~----0~----5~----2~----0~----00000000----------|

Chorus x3

Outro
|------------------------------------------------------------------|
|-------------------------------------22222222---------------------|
|------------------55555555--44444444----------00000000------------|
|22222222-00000000--------------------------------------444444445~|





Comments


Popular Janez Detd tabs & chords
Anti-anthem Bass Tabs
Take On Me Chords
Tonight Chords
Your Love Chords
Anti-Anthem Tabs
Deep Tabs
Deep Intro Tabs
Take On Me Ukulele
Tonight Ukulele
Your Love Ukulele


Song lyrics



↑ Back to top | Tablatures and chords are parodies/interpretations of the original songs. You may use it for private study, scholarship, research or language learning purposes only
© 2014 AZChords.com Contact us | Privacy policy | DMCA | Add/correct tabs | Request tabs | Top 50 tabs